Home » K » Knack »

Knack - Baby Talks Dirty Tabs

Artists:  A B C D E F G H I J K L M N O P Q R S T U V W X Y Z # 

Baby Talks Dirty Tabs

(ver. 1) Click to play this song!
Knack
[Intro]
e|---------------------|---------------|-----------------------|-------------|
B|---------------------|---------------|-----------------------|-------------|
G|---------------------|---------------|-----------------------|-------------|
D|-------0----3--3--3--|--(repeat 6x)--|--------------3--1--0--|-(repeat 2x)-|
A|---2/3---------------|---------------|---3\2-----------------|-------------|
E|--------3--3--3--3---|---------------|-------3--1-1--1--1----|-------------|

[Verse]
e|---------------------|---------------|-----------------------|-------------|
B|---------------------|---------------|-----------------------|-------------|
G|---------------------|---------------|-----------------------|-------------|
D|-------0----3--3--3--|--(repeat 2x)--|--------------3--1--0--|-(repeat 2x)-|
A|---2/3---------------|---------------|---3\2-----------------|-------------|
E|--------3--3--3--3---|---------------|-------3--1-1--1--1----|-------------|

[Chorus]
e|---------------------------------------------------------------------------|
B|---------------------------------------------------------------------------|
G|----------7-------------7-------------7------7777777777777777---555555555--|
D|----------7-------------7-------------7------7777777777777777---555555555--|
A|---3-2-0--5------3-2-0--5------3-5-7--5------5555555555555555---333333333--|
E|---------------------------------------------------------------------------|

[Verse]
e|---------------------|---------------|-----------------------|-------------|
B|---------------------|---------------|-----------------------|-------------|
G|---------------------|---------------|-----------------------|-------------|
D|-------0----3--3--3--|--(repeat 4x)--|--------------3--1--0--|-(repeat 2x)-|
A|---2/3---------------|---------------|---3\2-----------------|-------------|
E|--------3--3--3--3---|---------------|-------3--1-1--1--1----|-------------|

e|---------------------|---------------|-----------------------|-------------|
B|---------------------|---------------|-----------------------|-------------|
G|---------------------|---------------|-----------------------|-------------|
D|-------0----3--3--3--|--(repeat 2x)--|--------------3--1--0--|-(repeat 2x)-|
A|---2/3---------------|---------------|---3\2-----------------|-------------|
E|--------3--3--3--3---|---------------|-------3--1-1--1--1----|-------------|

[Chorus]
e|---------------------------------------------------------------------------|
B|---------------------------------------------------------------------------|
G|----------7-------------7-------------7------7777777777777777---555555555--|
D|----------7-------------7-------------7------7777777777777777---555555555--|
A|---3-2-0--5------3-2-0--5------3-5-7--5------5555555555555555---333333333--|
E|---------------------------------------------------------------------------|

[Verse]
e|---------------------------------------------------------------------------|
B|---------------------------------------------------------------------------|
D|-------------------------------------------------12------------12----------|
D|-------0---3--3--3-------0---3--3--3--3-2--------12------------12----------|
A|---2/3---------------2/3------------------3-2----10------------10----------|
E|--------3-3--3--3---------3-3--3--3----------------------------------------|

e|---------------------------------------------------------------------------|
B|---------------------------------------------------------------------------|
G|---------------------------------------------------------------------------|
D|-----------3--1--0-------------3--1--0-------------------------------------|
A|---------------------3\2---------------------------------------------------|
E|---10\1--1--1--1---------3--1-1--1--1--------------------------------------|

[Pre-Chorus]
e|---------------------------------------------------------------------------|
B|-------3-6---6--6--6--------3-6---6--6--6----------------------------------|
G|---4/5------------------4/5------------------5\4-----------5b-5---5\4------|
D|------------5--5--5--------------5--5--5---------5-3------------------5-3--|
A|---------------------------------------------------------------------------|
E|---------------------------------------------------------------------------|

e|-------------|--------------|----------------------------------------------|
B|-------------|--------------|----------------------------------------------|
G|-------------|--------------|----------------------------------------------|
D|---3\2/3-33--|--(repeat 2x--|----------------------------------------------|
A|-------------|--------------|----------------------------------------------|
E|-------------|--------------|----------------------------------------------|

[Chorus]
e|---------------------------------------------------------------------------|
B|---------------------------------------------------------------------------|
G|----------7-------------7-------------7------7777777777777777---555555555--|
D|----------7-------------7-------------7------7777777777777777---555555555--|
A|---3-2-0--5------3-2-0--5------3-5-7--5------5555555555555555---333333333--|
E|---------------------------------------------------------------------------|

[Guitar Backing Solo]
e|---------------------------------------------------------------------------|
B|---------------------------------------------------------------------------|
G|---77--------------7-------------7-------777777777777777----555555555------|
D|---77--------------7-------------7-------777777777777777----555555555------|
A|---55-------3-2-0--5------3-5-7--5-------555555555555555----333333333------|
E|---------------------------------------------------------------------------|

e|---------------------------------------------------------------------------|
B|---------------------------------------------------------------------------|
A|---5/12-------------------12-------------------12--------------------------|
A|---5/12-------------------12-------------------12--------------------------|
A|---3/10-------------------10-------------------10--------------------------|
E|---------------------------------------------------------------------------|

e|---------------------------------------------------------------------------|
B|---------------------------------------------------------------------------|
G|---------------------------------------------------------------------------|
D|----------3--1--0-------------3--1--0-------0---3--3--3-------0---3--3--3--|
A|--------------------3\2-----------------2/3---------------2/3--------------|
E|---10\1--1--1--1--------3--1-1--1--1---------3-3--3--3---------3-3--3--3---|

e|---------------------------------------------------------------------------|
B|---------------------------------------------------------------------------|
G|---------------------------------------------------------------------------|
D|-------------3--1--0-------------3--1--0-----------------------------------|
A|---3\2-----------------3\2-------------------------------------------------|
E|-------3--1-1--1--1--------3--1-1--1--1------------------------------------|

[Outro]
e|--------------------|---------------|--------------------------------------|
B|--------------------|---------------|--------------------------------------|
G|--------------------|---------------|----5\4----------5\4------------------|
D|-------0---3--3--3--|--(repeat 4x)--|--------5-3~~---------5-3~~-----------|
A|---2/3--------------|---------------|--------------------------------------|
E|--------3-3--3--3---|---------------|--------------------------------------|

e|---------------------------------------------------------------------------|
B|---5/13---13\12------------13\12---------------------3---6--6--------------|
G|----------------12-10~~----------12-10~~---10\4--4/5-----------------------|
D|------------------------------------------------------5-5--5---------------|
A|---------------------------------------------------------------------------|
E|---------------------------------------------------------------------------|            
Submit corrections

↑ Back to top | Tablatures and chords for acoustic guitar and electric guitar, ukulele, drums are parodies/interpretations of the original songs. You may use it for private study, scholarship, research or language learning purposes only