Home » K » Knack »

Knack - My Sharona Bass

Artists:  A B C D E F G H I J K L M N O P Q R S T U V W X Y Z # 

My Sharona Bass

(ver. 1) Click to play this song!
Knack

MY SHARONA (Bassline)





 

 

Gtr I (E A D G) - 'Staff'


  Q=145
 4/4
  Gtr I
  W          W          W          H    Q  Q
|----------|----------|----------|-------------|
|----------|----------|----------|---------0---|
|----------|----------|----------|-------------|
|----------|----------|----------|-------------|


  E E E E E E E E   E E E E E E E E   E E E E E E E E   Q  E E E E E E
|-----------------|-----------------|-----------------|----------------|
|-----5-5-----5---|-----5-------5---|-----5-5-----5---|----------------|
|-----------------|-----------------|-----------------|-3----1-3-1-----|
|-3-3-----3-------|-3-------3-3---2-|-3-3-----3-------|--------------2-|


  E E E E E E E E   E E E E E E E E   E E E E E E E E   Q  E E E E E E
|-----------------|-----------------|-----------------|----------------|
|-----5-5-----5---|-----5-------5---|-----5-5-----5---|----------------|
|-----------------|-----------------|-----------------|-3----1-3-1-----|
|-3-3-----3-------|-3-------3-3---2-|-3-3-----3-------|--------------2-|


  E E E E E E E E   E E E E E E E E   E E E E E E E E   Q  E E E E E E
|-----------------|-----------------|-----------------|----------------|
|-----5-5-----5---|-----5-------5---|-----5-5-----5---|----------------|
|-----------------|-----------------|-----------------|-3----1-3-1-----|
|-3-3-----3-------|-3-------3-3---2-|-3-3-----3-------|--------------2-|


  E E E E E E E E   E E E E E E E E   E E E E E E E E   Q  E E E E E E
|-----------------|-----------------|-----------------|----------------|
|-----5-5-----5---|-----5-------5---|-----5-5-----5---|----------------|
|-----------------|-----------------|-----------------|-3----1-3-1-----|
|-3-3-----3-------|-3-------3-3---2-|-3-3-----3-------|--------------2-|


  E E E E E E E E   E E E E E E E E   E E E E E E E E   E E E E E E E E
|-----------------|-----------------|-----3-3-----3-3-|-----3-3-----3-3-|
|-----5-5-----5-5-|-----5-5-----5---|-----------------|-----------------|
|-----------------|-----------------|-1-1-----1-1-----|-1-1-----1-1-----|
|-3-3-----3-3-----|-3-3-----3-3---3-|-----------------|-----------------|


  Q.   E +Q   Q    +E  E +Q   E E Q    E E E E E E E E   E E E E E E E E
|----------------|-------------------|-----------------|-----------------|
|-------------1--|-(1)-1-(1)--1------|-----5-5-----5---|-----5-------5---|
|-3----3-(3)-----|-------------------|-----------------|-----------------|
|----------------|----------------1--|-3-3-----3-------|-3-------3-3---2-|


  E E E E E E E E   Q  E E E E E E   E E E E E E E E   E E E E E E E E
|-----------------|----------------|-----------------|-----------------|
|-----5-5-----5---|----------------|-----5-5-----5---|-----5-------5---|
|-----------------|-3----1-3-1-----|-----------------|-----------------|
|-3-3-----3-------|--------------2-|-3-3-----3-------|-3-------3-3---2-|


  E E E E E E E E   Q  E E E E E E   E E E E E E E E   E E E E E E E E
|-----------------|----------------|-----------------|-----------------|
|-----5-5-----5---|----------------|-----5-5-----5---|-----5-------5---|
|-----------------|-3----1-3-1-----|-----------------|-----------------|
|-3-3-----3-------|--------------2-|-3-3-----3-------|-3-------3-3---2-|


  E E E E E E E E   Q  E E E E E E   E E E E E E E E   E E E E E E E E
|-----------------|----------------|-----------------|-----------------|
|-----5-5-----5---|----------------|-----5-5-----5-5-|-----5-5-----5---|
|-----------------|-3----1-3-1-----|-----------------|-----------------|
|-3-3-----3-------|--------------2-|-3-3-----3-3-----|-3-3-----3-3---3-|


  E E E E E E E E   E E E E E E E E   Q.   E +Q   Q    +E  E +Q   E E Q
|-----3-3-----3-3-|-----3-3-----3-3-|----------------|-------------------|
|-----------------|-----------------|-------------1--|-(1)-1-(1)--1---3--|
|-1-1-----1-1-----|-1-1-----1-1-----|-3----3-(3)-----|-------------------|
|-----------------|-----------------|----------------|-------------------|


  E E E E E E E E   E E E E E E E E   E E E E E E E E   E E E E E E E E
|-----------------|-----------------|-----------------|-----------------|
|-----5-5-----5---|-----5-------5---|-----5-5-----5---|-----5-------5-5-|
|-----------------|-----------------|-----------------|-----------------|
|-3-3-----3-------|-3-------3-3---2-|-3-3-----3-------|-3-------3-3-----|


  Q.   E +Q   Q    +E  E +Q   E E Q    E E E E E E E E   E E E E E E E E
|----------------|-------------------|-----------------|-----------------|
|-------------1--|-(1)-1-(1)--3-1-3--|-----5-5-----5---|-----5-------5-5-|
|-3----3-(3)-----|-------------------|-----------------|-----------------|
|----------------|-------------------|-3-3-----3-------|-3-------3-3-----|


  Q.   E +Q   Q    +E  E +Q   E E Q    E E E E E E E E   E E E E E E E E
|----------------|-------------------|-----------------|-----------------|
|-------------1--|-(1)-1-(1)--3-1-3--|-----5-5-----5---|-----5-------5-5-|
|-3----3-(3)-----|-------------------|-----------------|-----------------|
|----------------|-------------------|-3-3-----3-------|-3-------3-3-----|


  Q.   E +Q   Q    +E  E +Q   E E Q    E E E E E E E E   E E E E E E E E
|----------------|-------------------|-----------------|-----------------|
|-------------1--|-(1)-1-(1)--3-1-3--|-----5-5-----5---|-----5-------5-5-|
|-3----3-(3)-----|-------------------|-----------------|-----------------|
|----------------|-------------------|-3-3-----3-------|-3-------3-3-----|


  Q.   E +Q   Q    +E  E +Q   E E Q    E E E E E E E E   E E E E E E Q
|----------------|-------------------|-----------------|----------------|
|-------------1--|-(1)-1-(1)--3-1-3--|-----------------|----------------|
|-3----3-(3)-----|-------------------|-5-5-5-5-5-5-5-5-|-5-5-5-5-5------|
|----------------|-------------------|-----------------|-------------1--|


  E E E E E E E E   E E E E E E E E   E E E E E E E E   Q  E E E E E E
|-----------------|-----------------|-----------------|----------------|
|-----5-5-----5---|-----5-------5---|-----5-5-----5---|----------------|
|-----------------|-----------------|-----------------|-3----1-3-1-----|
|-3-3-----3-------|-3-------3-3---2-|-3-3-----3-------|--------------2-|


  E E E E E E E E   E E E E E E E E   E E E E E E E E   Q  E E E E E E
|-----------------|-----------------|-----------------|----------------|
|-----5-5-----5---|-----5-------5---|-----5-5-----5---|----------------|
|-----------------|-----------------|-----------------|-3----1-3-1-----|
|-3-3-----3-------|-3-------3-3---2-|-3-3-----3-------|--------------2-|


  E E E E E E E E   E E E E E E E E   E E E E E E E E   Q  E E E E E E
|-----------------|-----------------|-----------------|----------------|
|-----5-5-----5---|-----5-------5---|-----5-5-----5---|----------------|
|-----------------|-----------------|-----------------|-3----1-3-1-----|
|-3-3-----3-------|-3-------3-3---2-|-3-3-----3-------|--------------2-|


  E E E E E E E E   E E E E E E E E   E E E E E E E E   Q  E E E E E E
|-----------------|-----------------|-----------------|----------------|
|-----5-5-----5---|-----5-------5---|-----5-5-----5---|----------------|
|-----------------|-----------------|-----------------|-3----1-3-1-----|
|-3-3-----3-------|-3-------3-3---2-|-3-3-----3-------|--------------2-|


  E E E E E E E E   E E E E E E E E   E E E E E E E E   E E E E E E E E
|-----------------|-----------------|-----3-3-----3-3-|-----3-3-----3-3-|
|-----5-5-----5-5-|-----5-5-----5---|-----------------|-----------------|
|-----------------|-----------------|-1-1-----1-1-----|-1-1-----1-1-----|
|-3-3-----3-3-----|-3-3-----3-3---3-|-----------------|-----------------|


  Q.   E +Q   Q    +E  E +Q   E E Q    E E E E E E E E   E E E E E E E E
|----------------|-------------------|-----------------|-----------------|
|-------------1--|-(1)-1-(1)--1---3--|-----5-5-----5---|-----5-------5-5-|
|-3----3-(3)-----|-------------------|-----------------|-----------------|
|----------------|-------------------|-3-3-----3-------|-3-------3-3-----|


  Q.   E +Q   Q    +E  E +Q   E E Q    E E E E E E E E   E E E E E E E E
|----------------|-------------------|-----------------|-----------------|
|-------------1--|-(1)-1-(1)--1---3--|-----5-5-----5---|-----5-------5---|
|-3----3-(3)-----|-------------------|-----------------|-----------------|
|----------------|-------------------|-3-3-----3-------|-3-------3-3---2-|


  E E E E E E E E   E E E E E E E E   E E E E E E E E   E E E E E E E E
|-----------------|-----------------|-----------------|-----------------|
|-----5-5-----5---|-----5-------5---|-----5-5-----5---|-----5-------5---|
|-----------------|-----------------|-----------------|-----------------|
|-3-3-----3-------|-3-------3-3---2-|-3-3-----3-------|-3-------3-3---2-|


  E E E E E E E E   E E E E E E E E   W          +Q   Q  Q  Q
|-----------------|-----------------|----------|---------------|
|-----5-5-----5---|-----5-------5-5-|----------|---------------|
|-----------------|-----------------|-3--------|-(3)--------3--|
|-3-3-----3-------|-3-------3-3-----|----------|---------------|


  H    +H       E E +S  S E Q  E S S   Q.   E Q.   E   Q.   E Q  Q
|-5----(5)----|---7-(7)---7-7--5-----|---------------|--------------|
|-------------|------------------7---|---------------|--------------|
|-------------|----------------------|---------------|--------------|
|-------------|----------------------|-8----3-3----1-|-1----1-1--3--|


  Q.   E Q.   E   Q.   E Q  Q    Q.   E Q.   E   Q.   E Q  Q
|---------------|--------------|---------------|--------------|
|---------------|--------------|---------------|--------------|
|-3-------------|--------------|-3-------------|--------------|
|------3-3----1-|-1----1-1--3--|------3-3----1-|-1----1-1--3--|


  Q.   E Q.   E   Q.   E Q  Q    Q.   E Q.   E   Q.   E Q  Q
|---------------|--------------|---------------|--------------|
|---------------|--------------|---------------|--------------|
|-3-------------|--------------|-3-------------|--------------|
|------3-3----1-|-1----1-1--3--|------3-3----1-|-1----1-1--3--|


  Q.   E Q.   E   Q.   E Q  Q    Q.   E Q.   E   Q.   E Q  Q
|---------------|--------------|---------------|--------------|
|---------------|--------------|---------------|--------------|
|-3-------------|--------------|-3-------------|--------------|
|------3-3----1-|-1----1-1--3--|------3-3----1-|-1----1-1--3--|


  Q.   E Q.   E   Q.   E E E E E   Q.   E Q.   E   Q.   E E E E E
|---------------|----------------|---------------|----------------|
|---------------|----------------|---------------|----------------|
|-3-------------|------------1-2-|-3-------------|------------1-2-|
|------3-3----1-|-1----1-1-3-----|------3-3----1-|-1----1-1-3-----|


  Q.   E Q.   E   Q.   E E E E E   Q.   E Q.   E   Q.   E E E E E
|---------------|----------------|---------------|----------------|
|---------------|----------------|---------------|----------------|
|-3-------------|------------1-2-|-3-------------|------------1-2-|
|------3-3----1-|-1----1-1-3-----|------3-3----1-|-1----1-1-3-----|


  Q.   E Q.   E   Q.   E E E E E   Q.   E Q.   E   Q.   E E E E E
|---------------|----------------|---------------|----------------|
|---------------|----------------|---------------|----------------|
|-3-------------|------------1-2-|-3-------------|------------1-2-|
|------3-3----1-|-1----1-1-3-----|------3-3----1-|-1----1-1-3-----|


  Q.   E Q.   E   Q.   E E E E E   Q.   E Q.   E   Q.   E E E E E
|---------------|----------------|---------------|----------------|
|---------------|----------------|---------------|----------------|
|-3-------------|------------1-2-|-3-------------|------------1-2-|
|------3-3----1-|-1----1-1-3-----|------3-3----1-|-1----1-1-3-----|


  Q.   E Q.   E   Q.   E E E E E   Q.   E Q.   E   Q.   E E E E E
|---------------|----------------|---------------|----------------|
|---------------|----------------|---------------|----------------|
|-3-------------|------------1-2-|-3-------------|------------1-2-|
|------3-3----1-|-1----1-1-3-----|------3-3----1-|-1----1-1-3-----|


  Q.   E Q.   E   Q.   E E E E E   Q.   E Q.   E   Q.   E E E E E
|---------------|----------------|---------------|----------------|
|---------------|----------------|---------------|----------------|
|-3-------------|------------1-2-|-3-------------|------------1-2-|
|------3-3----1-|-1----1-1-3-----|------3-3----1-|-1----1-1-3-----|


  Q.   E Q.   E   Q.   E E E E E   Q.   E Q.   E   Q.   E E E E E
|---------------|----------------|---------------|----------------|
|---------------|----------------|---------------|----------------|
|-3-------------|------------1-2-|-3-------------|------------1-2-|
|------3-3----1-|-1----1-1-3-----|------3-3----1-|-1----1-1-3-----|


  Q.   E Q.   E   Q.   E E E E E   Q.   E Q.   E   Q.   E E E E E
|---------------|----------------|---------------|----------------|
|---------------|----------------|---------------|----------------|
|-3-------------|------------1-2-|-3-------------|------------1-2-|
|------3-3----1-|-1----1-1-3-----|------3-3----1-|-1----1-1-3-----|


  Q.   E Q.   E   Q.   E Q  Q    Q.   E Q.   E   Q.   E Q  Q
|---------------|--------5--5--|---------------|--------------|
|---------------|--------------|---------------|--------------|
|-3-------------|--------------|-3-------------|--------------|
|------3-3----1-|-1------------|------3-3----1-|-1----1-1--3--|


  Q.   E Q.   E   Q.   E Q  Q    Q.   E Q.   E   Q.   E Q  E E
|---------------|--------------|---------------|---------------|
|---------------|--------------|---------------|---------------|
|-3-------------|--------------|-3-------------|---------------|
|------3-3----1-|-1----1-1--3--|------3-3----1-|-1----1-1--3---|


  E E E E E E E E   E E E E E E Q    Q  E E +E  E E E   E E E E E E E E
|-----------------|----------------|------------------|-----------------|
|-----------------|----------------|----------------5-|-5-----5-------5-|
|---5-5-5-5-5-5-5-|-5-5-5-5-5-5----|------5-(5)-------|-----------------|
|-----------------|----------------|------------3-3---|---3-------3-----|


  E E E E E E E E   E E E E E E E E   E E E E E E E E   E E E E E E E E
|-----------------|-----------------|-----------------|-----------------|
|-------5-------5-|-5-----5-------5-|-------5-------5-|-5-----5-------5-|
|-----------------|-----------------|-----------------|-----------------|
|---3-3---2-3-3---|---3-------3-----|---3-3---2-3-3---|---3-------3-----|


  E E E E E E E E   E E E E E E E E   E E E E E E E E   E E E E E E E E
|-----------------|-----------------|-----------------|-----------------|
|-------5-------5-|-5-----5-------5-|-------5-------5-|-5-----5-------5-|
|-----------------|-----------------|-----------------|-----------------|
|---3-3---2-3-3---|---3-------3-----|---3-3---2-3-3---|---3-------3-----|


  E E E E E E E E   E E E E E E +S  S E   E E E E E E E E   E E E E E E E E
|-----------------|---------------------|-----------------|------------------|
|-------5-------5-|-5-----5-------------|---------------5-|-5-----5-------5--|
|-----------------|-----------3-(3)-----|-1-3-1-----------|------------------|
|---3-3---2-3-3---|---3-----------------|---------2-3-3---|---3-------3------|


  E E E E E E E E   E E E E E E +S  S E   E E E E E E E E   E E E E E E E E
|-----------------|---------------------|-----------------|------------------|
|-------5-------5-|-5-----5-------------|---------------5-|-5-----5-------5--|
|-----------------|-----------3-(3)-----|-1-3-1-----------|------------------|
|---3-3---2-3-3---|---3-----------------|---------2-3-3---|---3-------3------|


  E E E E E E E E   E E E E E E +S  S E   E E Q  +S  S E Q
|-----------------|---------------------|-------------------*|
|-------5-------5-|-5-----5-------------|-------------------*|
|-----------------|-----------3-(3)-----|-1-3-1--(1)--------*|
|---3-3---2-3-3---|---3-----------------|-------------------*|




--------------------------------------------------------------------------------


Duration Legend
---------------
W - whole; H - half; Q - quarter; E - 8th; S - 16th; T - 32nd; X - 64th; a - acciaccatura
+ - note tied to previous; . - note dotted; .. - note double dotted
Uncapitalized letters represent notes that are staccato (1/2 duration)
Irregular groupings are notated above the duration line
Duration letters will always appear directly above the note/fret number it represents the
duration for.  Duration letters with no fret number below them represent rests.  Multi-
bar rests are notated in the form Wxn, where n is the number of bars to rest for.  Low
melody durations appear below the staff

Tablature Legend
----------------
 h   - hammer-on
 p   - pull-off
 b   - bend
 pb  - pre-bend
 r   - bend release (if no number after the r, then release immediately)
 /\  - slide into or out of (from/to "nowhere")
 s   - legato slide
 S   - shift slide
 - natural harmonic
[n]  - artificial harmonic
n(n) - tapped harmonic
 ~   - vibrato
 tr  - trill
 T   - tap
 TP  - trem. picking
 PM  - palm muting
\n/  - tremolo bar dip; n = amount to dip
 \n  - tremolo bar down
 n/  - tremolo bar up
/n\  - tremolo bar inverted dip
 =   - hold bend; also acts as connecting device for hammers/pulls
 <> - volume swell (louder/softer)
 x   - on rhythm slash represents muted slash
 o   - on rhythm slash represents single note slash

Misc Legend
-----------
 |  - bar
||  - double bar
||o - repeat start
o|| - repeat end
*|  - double bar (ending)
 :  - bar (freetime)
 $  - Segno
 &  - Coda
Tempo markers -  = BPM(8/16=s8/s16), where s8 = swing 8ths, s16 = swing 16ths



--------------------------------------------------------------------------------
            
Submit corrections

↑ Back to top | Tablatures and chords for acoustic guitar and electric guitar, ukulele, drums are parodies/interpretations of the original songs. You may use it for private study, scholarship, research or language learning purposes only