Home » K » Kjwan »

Kjwan - Boomerang Bass

Artists:  A B C D E F G H I J K L M N O P Q R S T U V W X Y Z # 

Boomerang Bass

(ver. 1) Click to play this song!
Kjwan
Boomerang by Kjwan

tuning nito ay : C# A D G

Riff One: Intro
 G|-----------------------------------------|
 D|-----2------------------42-42----2-------|
 A|234----4-2h4-234--234----------4----42---| (ilang ulit?)
C#|----------------------------------------3|

pagkatapos ng ilang ulit

 G|--------------------------------|
 D|-----2--------------------------|
 A|234-----4-2h4-234--234----------| 
C#|--------------------------5-3---| (let ring)



Riff Two: Verse
 G|------------------------------------------------------------------|
 D|------------------------------------------------------------------|
 A|/--\-2-4----2-4----------------/--\--2-4----2-4--4----------------|
C#|-------------------------------------------------0--0--0----------|


Riff Three: Chorus
 G|-------------------------------------------------------------|  
 D|----2-----------4-2h4-2h4-2h5-4-2h4-------2------------------| 
 A|234---4-2h4-234-----------------------234---4-2h4-234----/--\|
C#|-------------------------------------------------------------|


Riff Four: Bridge
(gawa gawa ko lang to, hindi ko alam ung original, pero try mo kung ok)

 G|------------------------------------------------|
 D|-/11-11-9-9h11p9------------6-6h8p6-------------| 
 A|-----------------11-9-11/13------------8-6------|
C#|------------------------------------------------|


ung outro ng kanta Riff One and Two lang un...

                                               D|--------|
                                               A|--/--\--|
| /  slide up        ung ibig sabihin netong  C#|--------| slide up ung 
| \  slide down     mataas talaga (preferrably ung mataas na C#, pero
| h  hammer-on              ok lang naman kung hindi C#,e)
| p  pull-off           tapos slide down sa isang stoke lang...


listen to the song for better timing
            
Submit corrections

↑ Back to top | Tablatures and chords for acoustic guitar and electric guitar, ukulele, drums are parodies/interpretations of the original songs. You may use it for private study, scholarship, research or language learning purposes only