Home » K » Kit Chan »

Kit Chan - Home Tabs

Artists:  A B C D E F G H I J K L M N O P Q R S T U V W X Y Z # 

Home Tabs

(ver. 1) Click to play this song!
Kit Chan
 Rating:
4.3/5 (15 votes)
                [Verse 1]
   G                       Em             C                 G/B      Am         D
E|----------------------------------------------0-0---0-0---0-------------------------------|
B|-1p0-----------------0---1p0----------0-3-0-3-----3-----3---3--1p0-------0----------------|
G|-------2---2--0-0-2-----------2-2-0-0------------------------------2-2-0---0-2------------|
D|-----------------------------------------------------------------------------0------------|
A|----------------------------------------3-----3-----------2----------0--------------------|
E|--3--------3--------------0----0----------------------------------------------------------|
 
   G/B             C    Am            G/B   C         G/B       Am        D
E|------------------0--0-------------0------0-0--0-0---0---3--------------------------------|
B|-0-1-3-3-0-3-3----------1--1--1--1---3--------3----3---3-----1-0-1-3-0--------------------|
G|----------------0-----------------------------------------------------0-2-----------------|
D|------------------------------------------------------------------------0-----------------|
A|-----2------------3-----0------------2----3----------2-------0----------------------------|
E|------------------------------------------------------------------------------------------|
 
 
[Chorus]
 
     G         D          C      G/B     C     G/B     Em           D
E|-------------0-------------------------0-0-2-0--------------------------------------------|
B|-0-1-3---0-----3---------1-1-3-1-0-------------3----1p0-------0---------------------------|
G|-------0---0-------2---0-------------0------------------2-2-0---0-2-----------------------|
D|-------------0---0---0--------------------------------------------0-----------------------|
A|-----------------------3-------2-----3-------2-------2------------------------------------|
E|-----3----------------------------------------------------0-------------------------------|
 
     G         D          C      B     Em     D     C         G/B
E|-------------0-------------------------0-0---2-2--3-3--------3----------------------------|
B|-0-1-3---0-----3---------1-1-3-1-0----------------------1----3----------------------------|
G|-------0---0-------2---0-------------0-----2----------0---0--0----------------------------|
D|-------------0---0---0---------------------0----------------------------------------------|
A|-----------------------3-------2--------------------3--------2----------------------------|
E|-----3-------------------------------0----------------------------------------------------|
 
   Am           D       G
E|-0-0-2-3-----3-0-2-3--3------3------------------------------------------------------------|
B|-1--------------------3--3---3------------------------------------------------------------|
G|-2-----------2----------0--0-0------------------------------------------------------------|
D|-2----------------------------------------------------------------------------------------|
A|-0----------------------------------------------------------------------------------------|
E|----------------------3------3------------------------------------------------------------|
 
 
[Verse 2]
 
   G                       Em             C                 G/B      Am         D
E|----------------------------------------------0-0---0-0---0-------------------------------|
B|-1p0-----------------0---1p0----------0-3-0-3-----3-----3---3--1p0-------0----------------|
G|-------2---2--0-0-2-----------2-2-0-0------------------------------2-2-0---0-2------------|
D|-----------------------------------------------------------------------------0------------|
A|----------------------------------------3-----3-----------2----------0--------------------|
E|--3--------3--------------0-----0---------------------------------------------------------|
 
   G/B             C    Am        G/B  C         G/B       Am        D
E|------------------0--0-------------0------0-0--0-0---0---3--------------------------------|
B|-0-1-3-3-0-3-3----------1--1--1--1---3--------3----3---3-----1-0-1-3-0--------------------|
G|----------------0-----------------------------------------------------0-2-----------------|
D|------------------------------------------------------------------------0-----------------|
A|-----2------------3-----0------------2----3----------2-------0----------------------------|
E|------------------------------------------------------------------------------------------|
 
 
[Chorus]
 
     G         D          C      G/B     C     G/B     Em           D
E|-------------0-------------------------0-0-2-0--------------------------------------------|
B|-0-1-3---0-----3---------1-1-3-1-0-------------3----1p0-------0---------------------------|
G|-------0---0-------2---0-------------0------------------2-2-0---0-2-----------------------|
D|-------------0---0---0--------------------------------------------0-----------------------|
A|-----------------------3-------2-----3-------2-------2------------------------------------|
E|-----3----------------------------------------------------0-------------------------------|
 
     G         D          C      B     Em     D     C         G/B
E|-------------0-------------------------0-0---2-2--3-3--------3----------------------------|
B|-0-1-3---0-----3---------1-1-3-1-0----------------------1----3----------------------------|
G|-------0---0-------2---0-------------0-----2----------0---0--0----------------------------|
D|-------------0---0---0---------------------0----------------------------------------------|
A|-----------------------3-------2--------------------3--------2----------------------------|
E|-----3-------------------------------0----------------------------------------------------|
 
   Am           D       G
E|-0-0-2-3-----3-0-2-3--3------3------------------------------------------------------------|
B|-1--------------------3--3---3------------------------------------------------------------|
G|-2-----------2----------0--0-0------------------------------------------------------------|
D|-2----------------------------------------------------------------------------------------|
A|-0----------------------------------------------------------------------------------------|
E|----------------------3------3------------------------------------------------------------|
            
Submit corrections

↑ Back to top | Tablatures and chords for acoustic guitar and electric guitar, ukulele, drums are parodies/interpretations of the original songs. You may use it for private study, scholarship, research or language learning purposes only