Home » K » Kinks »

Kinks - You Really Got Me Bass

Artists:  A B C D E F G H I J K L M N O P Q R S T U V W X Y Z # 

You Really Got Me Bass

(ver. 1) Click to play this song!
Kinks
 Rating:
4/5 (4 votes)
                -------------------------------------------------------------------------------
			     You Really Got Me - The Kinks
-------------------------------------------------------------------------------


Tuning: Standard EADG

First and Second Verse
G|----------------|----------------|-----------------|--------------------|
D|----------------|----------------|-----------------|--------------------|
A|----------------|----------------|---5-5-3-5---5---|---5-5-3-5-5-----3-3|
E|--3-3-1-3---1---|--5-5-3-5---5---|-----------------|-------------0-0----|

Guitar Solo
G|----------------|
D|----------------|
A|----------------|
E|--3-3-1-3---1---|

Last Verse
G|----------------|----------------|-----------------|--------------------|
D|----------------|----------------|-----------------|--------------------|
A|----------------|----------------|---5-5-3-5---5---|---5-5-3-5-5-----5-5|
E|--3-3-1-3---1---|--5-5-3-5---5---|-----------------|-------------0-0----|

===============================================================================
            
Submit corrections

↑ Back to top | Tablatures and chords for acoustic guitar and electric guitar, ukulele, drums are parodies/interpretations of the original songs. You may use it for private study, scholarship, research or language learning purposes only