» » »

King Crimson - One More Red Nightmare Bass

Artists:  A B C D E F G H I J K L M N O P Q R S T U V W X Y Z # 

One More Red Nightmare Bass

(ver. 2) Click to play this song!
King Crimson
 Rating:
4/5 (4 votes)

 One More Red Nightmare lessons Tabs too difficult? Try these video lessons and learn fast
 
                one more red nightmare
Intro:
G|-------------------------------|
D|-------------------------------|
A|-------------------------------|
E|-0--4--6--0-4--6--0--4--6--0~--| (x2)

G|-------------------------------|
D|-------------------------------|
A|----5--7----5--7-----5--7------|
E|-6--------6-------6--------0~--|

G|-------------------------------|
D|-------------------------------|
A|-------------------------------|
E|-0--4--6--0-4--6--0--4--6--0~--|

G|-----------------------------------------------------|
D|-----------------------------------------------------|
A|----5--7----5--7-----5--7-----7--9----7--9-----7--9--|
E|-6--------6-------6--------8--------8-------8--------|


Verse:
G|------------------------------------------------------|
D|------------------------------------------------------|
A|-4--4--4--4-4-0-0-0--0-0--------------4--4--4-4-4-4---|
E|-------------------------2--2--2--2-2-----------------| (x2)

Chorus:
G|---------------------|
D|---------------------|
A|-4--4--xx4--3--3-//--|
E|---------------------|



Intro again:
G|-------------------------------|
D|-------------------------------|
A|-------------------------------|
E|-0--4--6--0-4--6--0--4--6--0~--| (x2)

G|-------------------------------|
D|-------------------------------|
A|----5--7----5--7-----5--7------|
E|-6--------6-------6--------0~--|

G|-------------------------------|
D|-------------------------------|
A|-------------------------------|
E|-0--4--6--0-4--6--0--4--6--0~--|

G|-----------------------------------------------------|
D|-----------------------------------------------------|
A|----5--7----5--7-----5--7-----7--9----7--9-----7--9--|
E|-6--------6-------6--------8--------8-------8--------|

Verse:
G|------------------------------------------------------|
D|------------------------------------------------------|
A|-4--4--4--4-4-0-0-0--0-0--------------4--4--4-4-4-4---|
E|-------------------------2--2--2--2-2-----------------| (x2)

Chorus:
G|---------------5-------|
D|-----------------------|
A|-4--4--xx4--3----xx----|
E|--------------------0~-|




Break:
G|----------------------------------------------------|
D|---------------5-----------------------8-------8----|
A|-------------5-------5---------------5-------8---8--|
E|----3----5-6-----------3-5-6-----5-6----------------|


G|----------9-----------7-----------9------------------|
D|-----------------------------------------------------|
A|----7----7-7\5-------5-5/7-------7-7\5-------x5--5-5-|
E|-----------------------------------------------------|


G|--------6----6-----------5-----5--|
D|----------------------------------|
A|---4--4--4-4--4-4-4--3-----3------|
E|----------------------------------|


G|----------9--------7/--9----------9----------------|
D|---------------------------------------------------|
A|---------7-7\5-------/7----------7-7\5-------------|
E|----0----------------------------------------------|


G|------------------------------------------------------|
D|---------------5------8----------8-7--8-7-5-------8---|
A|-------------5------5---8-------------------5---------|
E|-0-2-3---5-6--------------6----6--------------6-----6-|


G|----------9-----7-----------9-----9-----7--|
D|-------------------------------------------|
A|---7-----7-7\5-------5-6-7-------7-7\5-----|
E|----0--------------------------------------|


G|--------6--6----6-----5---5----|
D|-------------------------------|
A|-2-3-4-------4----3-----3---3--|
E|-------------------------------|


G|-----------9-----------------------9---------------|
D|---------------------------------------------------|
A|-------7--7-7\5-----------7-------7-7\5------------|
E|----0----------------------------------------------|


G|------------------------------------------------|
D|---------------5---------------------8------8---|
A|-------------5------5-------------5-8-----8-----|
E|-1-2-3---5-6----------6--3-5-6------------------|


G|-----------9-----7---------9-----9---7---7-7---7--|
D|--------------------------------------------------|
A|---7------7-7\5------5-6-7------7-7\5--5--5--5----|
E|----0---------------------------------------------|


G|------------5------|
D|-------------------|
A|-4----4---3----3---|
E|-------------------|




Intro again:
G|-------------------------------|
D|-------------------------------|
A|-------------------------------|
E|-0--4--6--0-4--6--0--4--6--0~--| (x2)

G|-------------------------------|
D|-------------------------------|
A|----5--7----5--7-----5--7------|
E|-6--------6-------6--------0~--|

G|-------------------------------|
D|-------------------------------|
A|-------------------------------|
E|-0--4--6--0-4--6--0--4--6--0~--|

G|-----------------------------------------------------|
D|-----------------------------------------------------|
A|----5--7----5--7-----5--7-----7--9----7--9-----7--9--|
E|-6--------6-------6--------8--------8-------8--------|


Verse:
G|------------------------------------------------------|
D|------------------------------------------------------|
A|-4--4--4--4-4-0-0-0--0-0--------------4--4--4-4-4-4---|
E|-------------------------2--2--2--2-2-----------------| (x2)

Chorus:
G|----6----------5------|
D|----------------------|
A|-4-----xx4--3---------|
E|------------------0~--|




2nd Break:
G|--------------------------------------------------|
D|---------------5-----------------------8-/10--8---|
A|-------------5-------5-------------5-8----------8-|
E|----3----5-6-----------3-5-6-----6----------------|


G|----------9-----------7----9------9------------------|
D|-----------------------------------------------------|
A|---7-----7-7\5-------5-5/7-------7-7\5-------5-x5-5--|
E|----0------------------------------------------------|


G|---6----6----6---5-5-5-5-5-----|
D|-------------------------------|
A|-4--4-4--4-4--4-3-3-3-3-3-3-3--|
E|-------------------------------|


G|----------9-----7------------9----9-----7---|
D|--------------------------------------------|
A|---------7-7\5-------5-6-7--7----7-7\5------|
E|----0---------------------------------------|


G|------------------------------------------------|
D|---------------5---------------------8----------|
A|-------------5--5-----------------5-8-----------|
E|-1-2-3---5-6-----6-3--5--6-3-5-6---------6---6--|


G|----------9----7-----------9------9-----7--|
D|-------------------------------------------|
A|---------7-7\5-------5-5/7-------7-7\5-5---|
E|-6-8-0-------------------------------------|


G|------------------6---6-----5--------|
D|-------------------------------------|
A|-5-x5-2-3-4--4-4---4----4-3---3-3-3--|
E|-------------------------------------|


G|----------9----7-----------9------9-----7--|
D|-------------------------------------------|
A|---------7-7\5-----------7-------7-7\5-----|
E|----0--------------------------------------|


G|-------------------------------------------------------|
D|---------------5----------------------8-8-8-7h8--------|
A|-------------5----5---------------5-8-----------8-7----|
E|-01-2-3--5-6--------6-5-6-3-5-6---------------------6--|


G|-------------9-------7----------9----9---7----|
D|----------------------------------------------|
A|------------7-7\5-------5-5--5/7--7-7-7\5-----|
E|----0-----------------------------------------|


G|---------6---6--6--6-----5---------|
D|-----------------------------------|
A|-2-3-4----4---4--4--4--3---3-3-3-3-|
E|-----------------------------------|


G|------------9-----------------9-------7----|
D|-------------------------------------------|
A|-----------7-7\5-5----5/7--7-7-7\5--5---5--|
E|----0--------------------------------------|
            
Submit corrections


        One More Red Nightmare lessons Hard to play? Try these video lessons and learn fast One More Red Nightmare lessons
        
↑ Back to top | Tablatures and chords for acoustic guitar and electric guitar, ukulele, drums are parodies/interpretations of the original songs. You may use it for private study, scholarship, research or language learning purposes only