» » »

King Crimson - Larks Tongues In Aspic Part I Tabs

Artists:  A B C D E F G H I J K L M N O P Q R S T U V W X Y Z # 

Larks Tongues In Aspic Part I Tabs

(ver. 1) Click to play this song!
King Crimson
 Rating:
4/5 (4 votes)

 Larks Tongues In Aspic Part I lessons Tabs too difficult? Try these video lessons and learn fast
 
                -------------------------------------------------------------------------------
                             LARK'S TONGUE IN ASPIC PART ONE - King Crimson
-------------------------------------------------------------------------------
Tuning:
EADGBE (Standard)

Listen to record of timing.

Violin Parts: 
|-------------------------------------------|
|-------------------------------------------|
|-8-x-x-8-x-x--8-x-8-x--8-x-x-8-x-x--8-8-910| *Play Twice*
|10-x-x10-x-x-10-x10-x-10-x-x10-x-x-10101010|
|-------------------------------------------|
|-------------------------------------------|

|-------------------------------------------|
|-------------------------------------------|
|11-x-x11-x-x-11111213-11-x-x11-x-x-11111213|
|10-x-x10-x-x-10101010-10-x-x10-x-x-10101010|
|-------------------------------------------|
|-------------------------------------------|

|-------------------------------------------|
|-------------------------------------------|
|13-x-x13-x-x-13-x1314-14-x-x14-x-x-14-x1415|
|10-x-x10-x-x-10-x1010-10-x-x10-x-x-10-x1010|
|-------------------------------------------|
|-------------------------------------------|


|-------------------|------------------------|
|12-x-x12-x-x-12-x12|-x-13-x-x13-x-x-13-x13-x| 
|-------------------|------------------------| *Play Second Half Twice*
|10-x-x10-x-x-10-x10|-x-10-x-x10-x-x-10-x10-x|
|-------------------|------------------------|
|-------------------|------------------------|

|11-x-x11-x-x-11-x11-x-11-x-x11-x-x-11111213|
|13-x-x13-x-x-13-x13-x-13-x-x13-x-x-13131313|
|-------------------------------------------| *Play Twice*
|-------------------------------------------|
|-------------------------------------------|
|-------------------------------------------|

|14-x-x14-x-x-14-x14-x-15-x-x15-x-x-15-x15-x|
|13-x-x13-x-x-13-x13-x-13-x-x13-x-x-13-x13-x|
|-------------------------------------------|
|-------------------------------------------|
|-------------------------------------------|
|-------------------------------------------|

|16-x-x16-x-x-16-x16-x-|17-x-x17-x-x-17-x17-x|
|13-x-x13-x-x-13-x13-x-|13-x-x13-x-x-13-x13-x|
|----------------------|---------------------| *Play Second Half Four Times*
|----------------------|---------------------|
|----------------------|---------------------|
|----------------------|---------------------|

Guitar Intro: 

|---------------------------------------------------------------------------|
|---------------------------------------------------------------------------|
|---------------------------------------------------------------------------|
|---------------------------------------------------------------------------|
|----------------------------------6~---------------------------------------|
|-8/5~------2~------1~------0~----------------8/4~---3~----2~----1~--2~--1~-|

Main Riff:

*Play This Twice*
|---------------------------------------|----------------------|
|---------------------------------------|----------------------|
|---------------------------------------|----------------------| 
|---3-5-6-3-5-----3-5-6-3-5------3-6-5--|----------3-5-6-3-5---|
|-5-1-3-4-1-3---5-1-3-4-1-3----5-1-4-3--|----3-4-5-1-3-4-1-3---|
|-3-------------3--------------3--------|----1-2-3-------------|

Riff Two:

|--------------------------------------------|
|--------------------------------------------|
|-----------------------------------5---6---7|
|-----6-----6---5---4-----6-----6-4---5---6--|
|---5-----5---4---3-----5-----5--------------|
|-3-----3-------------3-----3----------------|

Riff Three: 

|----------------------------------------11----13----14-------------------|
|----------------------------10----11--10----12----13--13-----------------|
|-----------------8-----9---9----10---8----10----11------1110--------11---|
|-----6-----7---7-----8---7-----8----------------------------12----11--10b|
|---5-----6---5-----6------------------------------------------11-9-------|
|-3-----4-----------------------------------------------------------------|

Outro:
Play Gm Arpeggios

The rest I'm not exactly sure on the rest, but I know the order:
Violin/Guitar Intro
Main Riff
Riff Two
Riff Three
Riff Two
???
Main Riff
???
Outro

Enjoy. :D
            
Submit corrections


        Larks Tongues In Aspic Part I lessons Hard to play? Try these video lessons and learn fast Larks Tongues In Aspic Part I lessons
        
↑ Back to top | Tablatures and chords for acoustic guitar and electric guitar, ukulele, drums are parodies/interpretations of the original songs. You may use it for private study, scholarship, research or language learning purposes only