Home » K » King Crimson »

King Crimson - 21st Century Schizoid Man Bass

Artists:  A B C D E F G H I J K L M N O P Q R S T U V W X Y Z # 

21st Century Schizoid Man Bass

(ver. 2) Click to play this song!
King Crimson
 Rating:
4/5 (5 votes)
                intro

G|---------------------------------------------------------------------|
D|---------1---3----5--------------------------------------------------|
A|-3—1h3---------------------------------------------------------------|
E|----------------------1----2------3----------------------------------|
“Cats foot, iron claw…)
G|----------------------------------------------------------------------|
D|----------------------------------------------------------------------|
A|---3----3-----3---------3---------------------------------------------|
E|----------------------------------------------------------------------|
“21st Century Schizoid Man”
G|---------------------------------------------------------------------|
D|---------------------------------------------------------------------|
A|----1----------------------------------------------------------------|
E|---------------------------------------------------------------------|
Intro again

During the big solo he plays with this scale
G|-----------------------3----5-----------------------------------------|
D|---------1----3----5--------------------------------------------------|
A|-1---3----------------------------------------------------------------|
E|----------------------------------------------------------------------|

Not too hard, with a good ear you can figure out where it all goes
            
Submit corrections

↑ Back to top | Tablatures and chords for acoustic guitar and electric guitar, ukulele, drums are parodies/interpretations of the original songs. You may use it for private study, scholarship, research or language learning purposes only