» » »

Stand By Me Bass - King Ben E

Artists:  A B C D E F G H I J K L M N O P Q R S T U V W X Y Z # 

Stand By Me Bass

(ver. 1) Click to play this song!
King Ben E
4/5 (4 votes)
    Stand By Me lessons Tabs too difficult? Try these video lessons and learn fast
                Artist          : BEN.E.KING
Bass Performance: STAND BY ME

|   w  w  w  w                                                                   
G -------------
D -----6--7--7  X2
A --7----------
E -------------

|   w  w  w  w                                                                   
G ------------
D --7--6------ 
A --------9--9 
E ------------

G   w  w  w  w                                                                   
D -------------
A -------------
E -----7--9--9-

|   w  w  w  w                                                                   
G ------------
D -----7------
A --7-----5--5
E ------------

|   w  w  w  w
G ------------
D -----4------
A --5-----7--7
E ------------
Submit corrections

↑ Back to top | Tablatures and chords for acoustic guitar and electric guitar, ukulele, drums are parodies/interpretations of the original songs. You may use it for private study, scholarship, research or language learning purposes only