Home » K » King B B »

King B B - Let The Good Times Roll Bass

Artists:  A B C D E F G H I J K L M N O P Q R S T U V W X Y Z # 

Let The Good Times Roll Bass

(ver. 1) Click to play this song!
King B B
bb king let the good times roll

TablEdited by Jan Bjorklund   
You are welcome to request for tabs!
Fingering and positions as suggested by TablEdit, please use common sense.


TablEdited by Jan.Bjorklund
Tuning : E A D G 	Time Signature: 4/4

 |       |       |       |        |       |       |       |        
|--------------------------------|--------------------------------|
|--------4-------2---------------|--------4-------2---------------|
|------------------------4-------|------------------------0-------|
|2-------------------------------|2-------------------------------|

 |       |       |       |        |       |       |       |        
|--------------------------------|--------------------------------|
|--------4-------2---------------|--------------------------------|
|------------------------4-------|----------------0-------1-------|
|2-------------------------------|2-------4-----------------------|

 |       |       |       |        |       |       |       |        
|--------4-------2---------------|--------------------------------|
|------------------------4-------|--------1-------2-------3-------|
|2-------------------------------|2-------------------------------|
|--------------------------------|--------------------------------|

 |       |       |       |        |       |       |       |        
|--------------------------------|--------------------------------|
|--------4-------2---------------|--------------------------------|
|------------------------4-------|--------1-------2-------3-------|
|2-------------------------------|2-------------------------------|

 |       |       |       |        |       |       |       |        
|--------6-------4-------1-------|--------------------------------|
|--------------------------------|--------1-------2-------3-------|
|4-------------------------------|2-------------------------------|
|--------------------------------|--------------------------------|

 |       |       |       |        |       |       |       |        
|--------------------------------|--------------------------------|
|--------------------------------|--------1-----------------------|
|--------1-------2-------3-------|4-------------------------------|
|2-------------------------------|----------------0-------1-------|

 |       |       |       |        |       |       |       |        
|--------------------------------|--------------------------------|
|--------4-------2---------------|------------------------1-------|
|------------------------4-------|--------0-------4---------------|
|2-------------------------------|2-------------------------------|

 |       |       |       |        |       |       |       |        
|--------------------------------|--------------------------------|
|--------4-------2---------------|--------2-----------------------|
|------------------------4-------|------------------------4-------|
|2-------------------------------|2---------------2---------------|

 |       |       |       |        |       |       |       |        
|--------4-------2---------------|--------4-------2---------------|
|------------------------4-------|------------------------4-------|
|2-------------------------------|2-------------------------------|
|--------------------------------|--------------------------------|

 |       |       |       |        |       |       |       |        
|--------------------------------|--------------------------------|
|--------4-------2---------------|--------4-------2---------------|
|------------------------4-------|------------------------0-------|
|2-------------------------------|2-------------------------------|

 |       |       |       |        |       |       |       |        
|--------6-------4-------1-------|--------4-------2---------------|
|--------------------------------|------------------------4-------|
|4-------------------------------|2-------------------------------|
|--------------------------------|--------------------------------|

 |       |       |       |        |       |       |       |        
|--------------------------------|--------------------------------|
|--------4-------2---------------|--------1-------1-------3-------|
|------------------------4-------|4-------------------------------|
|2-------------------------------|--------------------------------|

 |       |       |       |        |       |       |       |        
|--------------------------------|------------------------2-------|
|--------4-------2---------------|--------4-------2---------------|
|------------------------4-------|--------------------------------|
|2-------------------------------|2-------------------------------|

 |       |       |       |        |       |       |       |        
|--------------------------------|--------------------------------|
|--------4-------2---------------|--------------------------------|
|------------------------4-------|----------------0-------1-------|
|2-------------------------------|2-------4-----------------------|

 |       |       |       |        |       |       |       |        
|--------4-------2---------------|--------4-------2-------6-------|
|------------------------4-------|--------------------------------|
|2-------------------------------|2-------------------------------|
|--------------------------------|--------------------------------|

 |       |       |       |        |       |       |       |        
|--------------------------------|--------------------------------|
|--------4-------2---------------|--------4-------2-------4-------|
|------------------------4-------|--------------------------------|
|2-------------------------------|2-------------------------------|

 |       |       |       |        |       |       |       |        
|--------6-------4-------1-------|--------------------------------|
|--------------------------------|--------1-------2-------3-------|
|4-------------------------------|2-------------------------------|
|--------------------------------|--------------------------------|

 |       |       |       |        |       |       |       |        
|--------------------------------|--------6-----------------------|
|--------4-------2---------------|--------------------------------|
|------------------------4-------|4---------------4-------4-------|
|2-------------------------------|--------------------------------|

 |       |       |       |        |       |       |       |        
|--------------------------------|--------------------------------|
|--------2-----------------------|--------4-------2---------------|
|----------------4-------0-------|------------------------4-------|
|2---------------9---------------|2-------------------------------|

 |       |       |       |        |       |       |       |        
|--------------------------------|--------------------------------|
|--------2-----------------------|--------4-------2-------1-------|
|----------------4-------0-------|--------------------------------|
|2-------------------------------|2-------------------------------|

 |       |       |       |        |       |       |       |        
|--------4-------2---------------|--------4-------2---------------|
|------------------------4-------|------------------------0-------|
|2-------------------------------|2-------------------------------|
|--------------------------------|--------------------------------|

 |       |       |       |        |       |       |       |        
|--------------------------------|--------------------------------|
|--------2-----------------------|--------------------------------|
|----------------4-------0-------|--------1-------2-------3-------|
|2-------------------------------|2-------------------------------|

 |       |       |       |        |       |       |       |        
|--------6-------4-------1-------|--------4-------2---------------|
|--------------------------------|------------------------4-------|
|4-------------------------------|2-------------------------------|
|--------------------------------|--------------------------------|

 |       |       |       |        |       |       |       |        
|--------------------------------|--------------------------------|
|--------4-------2---------------|--------1-----------------------|
|------------------------4-------|4-------------------------------|
|2-------------------------------|----------------0-------1-------|

 |       |       |       |        |       |       |       |        
|--------------------------------|--------------------------------|
|--------4-------2---------------|--------4-------2---------------|
|------------------------4-------|------------------------0-------|
|2-------------------------------|2-------------------------------|

 |       |       |       |        |       |       |       |        
|--------------------------------|--------1-------2-------3-------|
|--------4-------2---------------|4-------------------------------|
|------------------------4-------|--------------------------------|
|2-------------------------------|--------------------------------|

 |       |       |       |        |       |       |       |        
|4-------2-------1-------0-------|--------------------------------|
|--------------------------------|--------1-------2-------3-------|
|--------------------------------|2-------------------------------|
|--------------------------------|--------------------------------|

 |       |       |       |        |       |       |       |        
|--------------------------------|--------------------------------|
|--------4-------2---------------|--------------------------------|
|------------------------4-------|--------1-------2-------3-------|
|2-------------------------------|2-------------------------------|

 |       |       |       |        |       |       |       |        
|--------6-------4-------1-------|--------------------------------|
|--------------------------------|--------1-------2-------3-------|
|4-------------------------------|2-------------------------------|
|--------------------------------|--------------------------------|

 |       |       |       |        |       |       |       |        
|--------3-------4-------5-------|6-------8---------------10------|
|4-------------------------------|----------------2---------------|
|--------------------------------|--------------------------------|
|--------------------------------|--------------------------------|

 |       |       |       |        |       |       |       |        
|11------9-------8-------7-------|6-------4-------2-------1-------|
|--------------------------------|--------------------------------|
|--------------------------------|--------------------------------|
|--------------------------------|--------------------------------|

 |       |       |       |        |       |       |       |        
|--------------------------------|--------------------------------|
|4-------4-------2---------------|--------------------------------|
|------------------------4-------|----------------0-------1-------|
|--------------------------------|2-------4-----------------------|

 |       |       |       |        |       |       |       |        
|--------4-------2---------------|------------------------1-------|
|------------------------4-------|--------0-------4---------------|
|2-------------------------------|2-------------------------------|
|--------------------------------|--------------------------------|

 |       |       |       |        |       |       |       |        
|--------------------------------|--------------------------------|
|--------4-------2---------------|--------4-------2---------------|
|------------------------4-------|------------------------1-------|
|2-------------------------------|2-------------------------------|

 |       |       |       |        |       |       |       |        
|--------6-------4-------1-------|--------4-------2---------------|
|--------------------------------|------------------------4-------|
|4-------------------------------|2-------------------------------|
|--------------------------------|--------------------------------|

 |       |       |       |        |       |       |       |        
|--------------------------------|--------8---------------10------|
|--------4-------2---------------|----------------2---------------|
|------------------------2-------|4-------------------------------|
|2-------------------------------|--------------------------------|

 |       |       |       |        |       |       |       |        
|--------------------------------|--------11------9-------4-------|
|--------4-------2---------------|--------------------------------|
|------------------------4-------|--------------------------------|
|2-------------------------------|2-------------------------------|

 |       |       |       |        |       |       |       |        
|--------------------------------|--------------------------------|
|--------4-------2---------------|--------------------------------|
|------------------------0-------|----------------0-------1-------|
|2-------------------------------|2-------4-----------------------|

 |       |       |       |        |       |       |       |        
|--------4-------2---------------|--------------------------------|
|------------------------4-------|--------1-------2-------3-------|
|2-------------------------------|2-------------------------------|
|--------------------------------|--------------------------------|

 |       |       |       |        |       |       |       |        
|--------------------------------|--------------------------------|
|4-------2-------1-------0-------|--------------------------------|
|--------------------------------|4-------------------------------|
|--------------------------------|--------4-------3-------2-------|

 |       |       |       |        |       |       |       |        
|--------6-------4-------1-------|--------------------------------|
|--------------------------------|--------1-------2-------3-------|
|4-------------------------------|2-------------------------------|
|--------------------------------|--------------------------------|

 |       |       |       |        |       |       |       |        
|--------11------9-------6-------|4-------------------------------|
|4-------------------------------|------------------------2-------|
|--------------------------------|--------2-----------------------|
|--------------------------------|------------------------0-------|

 |       |       |       |        |       |       |       |        
|--------------------------------|--------------------------------|
|4-------------------------------|4-------------------------------|
|--------------------------------|--------------------------------|
|2-------------------------------|2-------------------------------|

 |       |       |       |        |       |       |       |        
|--------------------------------|--------------------------------|
|4-------------------------------|4-----------------------2-------|
|--------------------------------|--------------------------------|
|2-------------------------------|2-----------------------0-------|

 |       |       |       |        |       |       |       |        
|--------------------------------|--------------------------------|
|4-------------------------------|4-------------------------------|
|--------------------------------|--------------------------------|
|2-------------------------------|2-------------------------------|

 |       |       |       |        |       |       |       |        
|--------------------------------|--------------------------------|
|4-------------------------------|4-------------------------------|
|--------------------------------|--------------------------------|
|2-------------------------------|2-------------------------------|

 |       |       |       |        |       |       |       |        
|--------------------------------|--------4-------2---------------|
|--------------------------------|------------------------4-------|
|--------------------------------|2-------------------------------|
|----------------2-------2-------|--------------------------------|

 |       |       |       |        |       |       |       |        
|--------4-------2---------------|--------------------------------|
|------------------------4-------|--------4-------2---------------|
|2-------------------------------|------------------------0-------|
|--------------------------------|2-------------------------------|

 |       |       |       |        |       |       |       |        
|--------------------------------|--------6-------4-------1-------|
|--------------------------------|--------------------------------|
|--------1-------2-------3-------|4-------------------------------|
|2-------------------------------|--------------------------------|

 |       |       |       |        |       |       |       |        
|--------4-------2---------------|--------------------------------|
|------------------------4-------|--------------------------------|
|2-------------------------------|--------1-------2-------3-------|
|--------------------------------|2-------------------------------|

 |       |       |       |        |       |       |       |        
|--------------------------------|--------------------------------|
|--------1-------2-------3-------|4-------2---------------2-------|
|4-------------------------------|----------------4---------------|
|--------------------------------|--------------------------------|

 |       |       |       |        |       |       |       |        
|--------------------------------|--------------------------------|
|--------2---------------1-------|--------2---------------1-------|
|----------------4---------------|----------------4---------------|
|2-------------------------------|2-------------------------------|

 |       |       |       |        |       |       |       |        
|--------------------------------|--------4-------2---------------|
|--------2-------1---------------|------------------------4-------|
|------------------------4-------|2-------------------------------|
|2-------------------------------|--------------------------------|

 |       |       |       |        |       |       |       |        
|--------------------------------|--------3-------4-------5-------|
|--------1-------2-------3-------|4-------------------------------|
|2-------------------------------|--------------------------------|
|--------------------------------|--------------------------------|

 |       |       |       |        |       |       |       |        
|6-------11--------------6-------|--------6-------4-------1-------|
|----------------4---------------|--------------------------------|
|--------------------------------|4-------------------------------|
|--------------------------------|--------------------------------|

 |       |       |       |        |       |       |       |        
|--------------------------------|--------------------------------|
|--------1-------2-------3-------|4-------2-------1-------0-------|
|2-------------------------------|--------------------------------|
|--------------------------------|--------------------------------|

 |       |       |       |        |       |       |       |        
|--------------------------------|--------------------------------|
|--------------------------------|--------4-------2---------------|
|4-------4-------4-------4-------|------------------------4-------|
|--------------------------------|2-------------------------------|

 |       |       |       |        |       |       |       |        
|--------------------------------|--------------------------------|
|------------------------1-------|--------4-------2---------------|
|--------0-------4---------------|------------------------4-------|
|2-------------------------------|2-------------------------------|

 |       |       |       |        |       |       |       |        
|--------------------------------|------------------------1-------|
|------------------------1-------|--------0-------4---------------|
|--------0-------4---------------|2-------------------------------|
|2-------------------------------|--------------------------------|

 |       |       |       |        |       |       |       |        
|--------4-------2---------------|--------------------------------|
|------------------------4-------|--------4-------2---------------|
|2-------------------------------|------------------------4-------|
|--------------------------------|2-------------------------------|

 |       |       |       |        |       |       |       |        
|--------------------------------|--------6-------4-------1-------|
|--------4-------2---------------|--------------------------------|
|--------------------------------|4-------------------------------|
|2-----------------------2-------|--------------------------------|

 |       |       |       |        |       |       |       |        
|--------4-------2---------------|--------------------------------|
|------------------------4-------|--------4-------2---------------|
|2-------------------------------|------------------------4-------|
|--------------------------------|2-------------------------------|

 |       |       |       |        |       |       |       |        
|----------------6---------------|--------------------------------|
|--------------------------------|--------4-------2---------------|
|4-------4---------------4-------|------------------------0-------|
|--------------------------------|2-------------------------------|

 |       |       |       |        |       |       |       |        
|--------------------------------|--------------------------------|
|--------4-------2---------------|--------4-------2---------------|
|------------------------0-------|------------------------0-------|
|2-------------------------------|2-------------------------------|

 |       |       |       |        |       |       |       |        
|--------------------------------|--------4-------2---------------|
|--------4-------2---------------|------------------------0-------|
|------------------------0-------|2-------------------------------|
|2-------------------------------|--------------------------------|

 |       |       |       |        |       |       |       |        
|--------4-------2---------------|--------------------------------|
|--------------------------------|--------4-------2---------------|
|2-----------------------2-------|------------------------0-------|
|--------------------------------|2-------------------------------|

 |       |       |       |        |       |       |       |        
|--------------------------------|--------6-------4-------1-------|
|--------4-------2---------------|--------------------------------|
|------------------------1-------|4-------------------------------|
|2-------------------------------|--------------------------------|

 |       |       |       |        |       |       |       |        
|--------------------------------|--------3-------4-------5-------|
|--------1-------2-------3-------|4-------------------------------|
|2-------------------------------|--------------------------------|
|--------------------------------|--------------------------------|

 |       |       |       |        |       |       |       |        
|6---------------1-------6-------|--------------------------------|
|--------------------------------|--------4-------2---------------|
|--------4-----------------------|------------------------4-------|
|--------------------------------|2-------------------------------|

 |       |       |       |        |       |       |       |        
|--------------------------------|--------------------------------|
|--------4-------2---------------|--------4-------2---------------|
|------------------------4-------|------------------------4-------|
|2-------------------------------|2-------------------------------|

 |       |       |       |        |       |       |       |        
|--------11--------------11------|--------4-------2---------------|
|------------------------4-------|------------------------4-------|
|--------------------------------|2-------------------------------|
|2---------------2---------------|--------------------------------|

 |       |       |       |        |       |       |       |        
|--------4-------2---------------|--------------------------------|
|------------------------1-------|--------4-------2---------------|
|2-------------------------------|------------------------4-------|
|--------------------------------|2-------------------------------|

 |       |       |       |        |       |       |       |        
|--------------------------------|--------------------------------|
|--------------------------------|--------------------------------|
|--------1-------2-------3-------|4-------2---------------4-------|
|2-------------------------------|----------------4---------------|

 |       |       |       |        |       |       |       |        
|--------------------------------|--------------------------------|
|--------1-------2-------3-------|--------4-------2---------------|
|--------------------------------|------------------------4-------|
|--------------------------------|2-------------------------------|

 |       |       |       |        |       |       |       |        
|--------------------------------|--------------------------------|
|--------1---------------3-------|--------4-------2---------------|
|4-------------------------------|------------------------0-------|
|--------------------------------|2-------------------------------|

 |       |       |       |        |       |       |       |        
|--------------------------------|--------------------------------|
|------------------------1-------|--------4-------2---------------|
|--------0-------4---------------|------------------------0-------|
|2-------------------------------|2-------------------------------|

 |       |       |       |        |       |       |       |        
|--------1---------------3-------|--------4-------2---------------|
|--------------------------------|------------------------0-------|
|----------------0---------------|2-------------------------------|
|2-------------------------------|--------------------------------|

 |       |       |       |        |       |       |       |        
|--------------------------------|--------------------------------|
|--------1-------2-------3-------|--------4-------2---------------|
|2-------------------------------|------------------------4-------|
|--------------------------------|2-------------------------------|

 |       |       |       |        |       |       |       |        
|--------------------------------|--------------------------------|
|--------------------------------|--------------------------------|
|--------1-------2-------3-------|4-----------------------4-------|
|2-------------------------------|--------0-------4---------------|

 |       |       |       |        |       |       |       |        
|--------------------------------|--------------------------------|
|--------1-------2-------3-------|4-------------------------------|
|2-------------------------------|--------------------------------|
|--------------------------------|2-------------------------------|

 |       |       |       |        |       |       |       |        
|--------------------------------|--------------------------------|
|--------------------------------|--------------------------------|
|--------------------------------|--------------------------------|
|--------------------------------|--------------------------------|

 |       |       |       |        |       |       |       |        
|--------------------------------|--------------------------------|
|--------------------------------|--------------------------------|
|--------------------------------|--------------------------------|
|--------------------------------|--------------------------------|

 |       |       |       |        |       |       |       |        
|--------------------------------|--------------------------------|
|--------------------------------|--------------------------------|
|--------------------------------|--------------------------------|
|--------------------------------|--------------------------------|
            
Submit corrections

↑ Back to top | Tablatures and chords for acoustic guitar and electric guitar, ukulele, drums are parodies/interpretations of the original songs. You may use it for private study, scholarship, research or language learning purposes only