Home » K » King B B »

King B B - Dont Answer The Door Bass

Artists:  A B C D E F G H I J K L M N O P Q R S T U V W X Y Z # 

Dont Answer The Door Bass

(ver. 1) Click to play this song!
King B B
 Rating:
4/5 (4 votes)
                bb king don't answer

TablEdited by Jan Bjorklund   
You are welcome to request for tabs!
Fingering and positions as suggested by TablEdit, please use common sense.


TablEdited by Jan.Bjorklund
Tuning : E A D G 	Time Signature: 4/4

 |       |       |       |        |       |       |       |        
|--------------------------------|--------------------------------|
|--------------------------------|1-------------------------------|
|1-------------------------------|--------4-----------------------|
|--------1---------------1-------|--------------------------------|

 |       |       |       |        |       |       |       |        
|--------------------------------|------------------------0-------|
|--------0-------3---------------|--------0-------3---------------|
|1-------------------------------|1-------------------------------|
|--------------------------------|--------------------------------|

 |       |       |       |        |       |       |       |        
|--------------------------------|--------------------------------|
|1-------------------------------|1---------------1---------------|
|--------4-------3-------1-------|--------1---------------3-------|
|--------------------------------|--------------------------------|

 |       |       |       |        |       |       |       |        
|--------------------------------|------------------------0-------|
|--------0-------3---------------|--------0-------3---------------|
|--------------------------------|1-------------------------------|
|--------------------------------|--------------------------------|

 |       |       |       |        |       |       |       |        
|--------------------------------|--------------------------------|
|3-------------------------------|1-------------------------------|
|--------3---------------3-------|--------4-------3-------2-------|
|--------------------------------|--------------------------------|

 |       |       |       |        |       |       |       |        
|--------------------------------|--------------------------------|
|--------0-------1-------2-------|3-------------------------------|
|1-------------------------------|--------------------------------|
|--------------------------------|--------------------------------|

 |       |       |       |        |       |       |       |        
|--------------------------------|--------------------------------|
|--------0-------3-------2-------|1-------------------------------|
|1-------------------------------|--------4-------3-------2-------|
|--------------------------------|--------------------------------|

 |       |       |       |        |       |       |       |        
|------------------------0---0---|------------------------0-------|
|--------0-------3---------------|--------0-------3---------------|
|1-------------------------------|--------------------------------|
|--------------------------------|--------------------------------|

 |       |       |       |        |       |       |       |        
|--------------------------------|--------------------------------|
|1-------------------------------|1-------------------------------|
|--------4-------3-------1-------|--------4-------3-------2-------|
|--------------------------------|--------------------------------|

 |       |       |       |        |       |       |       |        
|------------------------0-------|------------------------0-------|
|--------0-------3---------------|--------0-------3---------------|
|1-------------------------------|1-------------------------------|
|--------------------------------|--------------------------------|

 |       |       |       |        |       |       |       |        
|--------------------------------|--------------------------------|
|3-------3-----------------------|1-------------------------------|
|--------------------------------|--------4-------3-------2-------|
|--------------------------------|--------------------------------|

 |       |       |       |        |       |       |       |        
|--------------------------------|--------------------------------|
|--------0-------1-------2-------|3-------3-------3-------3---3---|
|1-------------------------------|--------------------------------|
|--------------------------------|--------------------------------|

 |       |       |       |        |       |       |       |        
|----------------0---------------|3---------------0---------------|
|--------6---------------3-------|------------------------3-------|
|--------------------------------|--------------------------------|
|--------------------------------|--------------------------------|

 |       |       |       |        |       |       |       |        
|3-------------------------------|3-------1-------0---------------|
|--------6-------5-------3-------|------------------------3-------|
|--------------------------------|--------------------------------|
|--------------------------------|--------------------------------|

 |       |       |       |        |       |       |       |        
|--------------------------------|--------------------------------|
|1-------------------------------|1-------------------------------|
|--------4-------3-------1-------|--------4-------3-------2-------|
|--------------------------------|--------------------------------|

 |       |       |       |        |       |       |       |        
|------------------------0-------|------------------------0-------|
|--------0-------3---------------|--------0-------3---------------|
|1-------------------------------|1-------------------------------|
|--------------------------------|--------------------------------|

 |       |       |       |        |       |       |       |        
|--------------------------------|--------------------------------|
|3-------3-------3-------3-------|1-------------------------------|
|--------------------------------|--------4-------3-------2-------|
|--------------------------------|--------------------------------|

 |       |       |       |        |       |       |       |        
|--------------------------------|--------------------------------|
|--------0-------1-------2-------|--------3-------3-------3-------|
|1-------------------------------|--------------------------------|
|--------------------------------|--------------------------------|

 |       |       |       |        |       |       |       |        
|--------------------------------|--------------------------------|
|--------0-------3-------2-------|1-------------------------------|
|1-------------------------------|--------4-------3-------2---0---|
|--------------------------------|--------------------------------|

 |       |       |       |        |       |       |       |        
|------------------------0-------|------------------------0-------|
|--------0-------3---------------|------------0-------------------|
|--------------------------------|1---1---------------------------|
|--------------------------------|--------------------------------|

 |       |       |       |        |       |       |       |        
|--------------------------------|--------------------------------|
|1-------------------------------|1-------------------------------|
|--------4-------3-------1-------|--------4-------3-------2-------|
|--------------------------------|--------------------------------|

 |       |       |       |        |       |       |       |        
|------------------------0-------|------------------------0-------|
|--------0-------3---------------|--------0-------3---------------|
|1-------------------------------|1-------------------------------|
|--------------------------------|--------------------------------|

 |       |       |       |        |       |       |       |        
|--------------------------------|--------------------------------|
|3-------3-------3-------3-------|1-------------------------------|
|--------------------------------|--------4-------3-------2-------|
|--------------------------------|--------------------------------|

 |       |       |       |        |       |       |       |        
|--------------------------------|--------------------------------|
|--------0---0-----------2-------|3-------3-------3-------3-------|
|1-------------------------------|--------------------------------|
|--------------------------------|--------------------------------|

 |       |       |       |        |       |       |       |        
|--------------------------------|3-------1-------0---------------|
|8-------6-------5-------3-------|------------------------3-------|
|--------------------------------|--------------------------------|
|--------------------------------|--------------------------------|

 |       |       |       |        |       |       |       |        
|3-------1-------0---------------|3---------------0---------------|
|------------------------3-------|--------6---------------4-------|
|--------------------------------|--------------------------------|
|--------------------------------|--------------------------------|

 |       |       |       |        |       |       |       |        
|--------------------------------|--------------------------------|
|1-------------------------------|1-------------------------------|
|--------4-------3---------------|--------4-------3-------2-------|
|--------------------------------|--------------------------------|

 |       |       |       |        |       |       |       |        
|------------------------0-------|------------------------0-------|
|--------0-------3---------------|--------0-------3---------------|
|1-------------------------------|1-------------------------------|
|--------------------------------|--------------------------------|

 |       |       |       |        |       |       |       |        
|--------------------------------|--------------------------------|
|3-------3-------3-------3-------|1-------------------------------|
|--------------------------------|--------4---4-----------2-------|
|--------------------------------|--------------------------------|

 |       |       |       |        |       |       |       |        
|--------------------------------|--------------------------------|
|--------0-------1-------2-------|3-------------------------------|
|1-------------------------------|--------------------------------|
|--------------------------------|--------1---------------1-------|

 |       |       |       |        |       |       |       |        
|------------------------0-------|------------------------0-------|
|--------0-------3---------------|--------------------------------|
|1-------------------------------|1---1---------------------------|
|--------------------------------|--------------------------------|

 |       |       |       |        |       |       |       |        
|------------------------0-------|3-------1-------0---------------|
|--------0-------3---------------|------------------------3-------|
|1-------------------------------|--------------------------------|
|--------------------------------|--------------------------------|

 |       |       |       |        |       |       |       |        
|--------------------------------|--------------------------------|
|1---1---------------------------|1-------------------------------|
|----------------3-------1-------|--------4-------3-------2-------|
|--------------------------------|--------------------------------|

 |       |       |       |        |       |       |       |        
|------------------------0-------|------------------------0-------|
|--------0-------3---------------|--------0-------3---------------|
|1-------------------------------|1-------------------------------|
|--------------------------------|--------------------------------|

 |       |       |       |        |       |       |       |        
|--------------------------------|--------------------------------|
|3---------------3-------3-------|1-------------------------------|
|--------------------------------|----------------3-------2-------|
|--------------------------------|--------------------------------|

 |       |       |       |        |       |       |       |        
|--------------------------------|--------------------------------|
|--------0-------1-------2---2---|--------------------------------|
|1-------------------------------|--------2-----------------------|
|--------------------------------|--------------------------------|

 |       |       |       |        
|--------------------------------|
|--------------------------------|
|--------------------------------|
|--------------------------------|
            
Submit corrections

↑ Back to top | Tablatures and chords for acoustic guitar and electric guitar, ukulele, drums are parodies/interpretations of the original songs. You may use it for private study, scholarship, research or language learning purposes only