Home » K » King »

King - Libertine Tabs

Artists:  A B C D E F G H I J K L M N O P Q R S T U V W X Y Z # 

Libertine Tabs

(ver. 2) Click to play this song!
King
For the f**kers who cant learn sh*t by ear.
I think its pretty close ha think somethings wrong tell me

*im not putting obvious sh*t down. like how many times its plucked or how many
open sh*t or whatever*


Libertine By KING

Drop B


obviously not single picked
--17-13-12--------12-----------------------------12-------------------12-----|
------------14-11-----14-11-10-11-14-10-11-14-10-----10-14-10-11-14-10-------|
-----------------------------------------------------------------------------|
-----------------------------------------------------------------------------|
-----------------------------------------------------------------------------|
-----------------------------------------------------------------------------|

-17-13-----------------------------------|
---------15-----s------------------------|
-------------14------w-------------------|
-----------------15--------e-------------|
---------------------17-12-----e---------|
-----------------------------15------p---|

then this then variation with some open chord sh*t. figure the open sh*t out

----------------------12-------------------------------------|
-------10-11-14-10---------then-same--s----------------------|
--7*--------------------------------------w------------------|
-----------------------------------------------e-------------|
----------------------------------------------------e--------|
---------------------------------------------------------p---|

*= natural harmonic


then just repeats its self sounding brutal as f**k

then a brkdwn with a bend at the second fret,top string

----------------------------------------------------------|
----------------------------------------------------------|
----------------------------------------------------------|
----------------------------------------------------------|
-55555-88888-44444-44444-----------------4h7p4h7----------|
---------------------------------5h8p5h8------------------|

---------------------------------------------------------------------|
---------------------------------------------------------------------|
---------------------------------------------------------------------|
------------------------------5h8p5----------------------------------|
-55555-88888-4444-4444--------------8p0-10p0-8p0--5p0-8p0------------|
---------------------------------------------------------------------|

----------------------------------------------------------|
----------------------------------------------------------|
----------------------------------------------------------|
----------------------------------------------------------|
-55555-88888-44444-44444-----------------4h7p4h7----------|
---------------------------------5h8p5h8------------------|

-------------|
-------------|
-------------|
-------------|
---4---------|
-1-----------| with open powerchords progressions

------------------------------------------------|
------------------------------------------------|
------------------------------------------------|
-2h3p20~----------------------------------------|
-2h3p20~-then-some-pattern-ha-------------------|
-2h3p20~----------------------------------------|


---------------------------------------------|
---------------------------------------------|
---------------------------------------------|
-023-----0--000--8-7-------------------------|
-023--5 -0--000-------10-8--5----------------|
-023-----0--000------------------------------|

more open zeros witha lil slide


this makes me wanna spit on f**kers ha
-------------------------------------------------------------------|
-------------------------------------------------------------------|
-7-5/8-5-5-5/7--11-------------------------------------------------|
------------------------87-5-75-3----------------------------------|
-5-3/6-3-3-3/5--9-------87-5-75-3----------------------------------|
------------------------87-5-75-3----------------------------------|

now this im not too sure about.as i was tabbing this i thought it would be kinda close
i think its just hammer ons fast but idk. if you dont like it just play the rythm

-----------------------------------------------------------------------------|
-----181615161516-181615161516-201817181718-repeat-/15-18-13-15-15-----------|
--16-------------------------------------------------------------------------|
-----------------------------------------------------------------------------|
-----------------------------------------------------------------------------|
-----------------------------------------------------------------------------|


----------|
----------|
----------|
0---------|
0-brkdwn
1--------

this again
----------------------------------------------------------|
----------------------------------------------------------|
----------------------------------------------------------|
----------------------------------------------------------|
-55555-88888-44444-44444-----------------4h7p4h7----------|
---------------------------------5h8p5h8------------------|

---------------------------------------------------------------------|
---------------------------------------------------------------------|
---------------------------------------------------------------------|
------------------------------5h8p5----------------------------------|
-55555-88888-4444-4444----------------8p0-10p0-8p0--5p0-8p0----------|
---------------------------------------------------------------------|

then open with the same bend
yeah there you go
think somethings wrong tell me
            
Submit corrections

↑ Back to top | Tablatures and chords for acoustic guitar and electric guitar, ukulele, drums are parodies/interpretations of the original songs. You may use it for private study, scholarship, research or language learning purposes only