Home » K » Kina Grannis »

Kina Grannis - Valentine Tabs

Artists:  A B C D E F G H I J K L M N O P Q R S T U V W X Y Z # 

Valentine Tabs

(ver. 1) Click to play this song!
Kina Grannis
-------------------------------------------------------------------------------
-------------------------------------------------------------------------------
of what she says:) ENJOY!


Tuning: Standard

Intro + Verse:
e|---------------------------------------------------------------------------|
B|---0------0-----0-0-----0-----0-0-----0-----0-0-----0----------------------|
G|------2--------------2-------------2-------------2-------------------------|
D|------2------2-------2-----2-------2-----2-------2-----2-------------------|
A|------2---2----------2--2----------2--2----------2--2----------------------|
E|---------------------------------------------------------------------------|

e|--0-0-----0-----0-0-----0-----0-2-----2-----0-2-----2----------------------|
B|---------------------------------------------------------------------------|
G|-------2-------------2-------------4-------------4-------------------------|
D|-------1-----1-------1-----1-------2-----2-------2-----2-------------------|
A|-------0--0----------0--0----------2--2----------2--2----------------------|
E|---------------------------------------------------------------------------|

e|---------------------------------------------------------------------------|
B|---------------------------------------------------------------------------|
G|--0-0-----0-----0-0-----0--------------------------------------------------|
D|-------2-------------2-----------------------------------------------------|
A|-------3-----3-------3-----3-----------------------------------------------|
E|-------2--2----------2--2--------------------------------------------------|

Pre Chorus:
e|----------------0-0-----0-----0-2-----2------------------------------------|
B|--0-0-----0----------------------------------------------------------------|
G|-------2-------------2-------------4--------0-0-----0----------------------|
D|-------2-----2-------1-----1-------2-----2-------2-------------------------|
A|-------2--2----------0--0----------2--2----------3-----3-------------------|
E|-------------------------------------------------2--2----------------------|

e|----------------0-0-----0-----0-2-----2------------------------------------|
B|--0-0-----0----------------------------------------------------------------|
G|-------2-------------2-------------4--------0-0----------------------------|
D|-------2-----2-------1-----1-------2-----2-------2-------------------------|
A|-------2--2----------0--0----------2--2-------------3----------------------|
E|-------------------------------------------------------2-------------------|

Chorus:
e|----------------0-0-----0-----0-2-----2------------------------------------|
B|--0-0-----0----------------------------------------------------------------|
G|-------2-------------2-------------4--------0-0-----0----------------------|
D|-------2-----2-------1-----1-------2-----2-------2-------------------------|
A|-------2--2----------0--0----------2--2----------3-----3-------------------|
E|-------------------------------------------------2--2----------------------|

e|----------------0-0-----0-----0-2-----2------------------------------------|
B|--0-0-----0----------------------------------------------------------------|
G|-------2-------------2-------------4--------0-0----------------------------|
D|-------2-----2-------1-----1-------2-----2-------2-------------------------|
A|-------2--2----------0--0----------2--2-------------3----------------------|
E|-------------------------------------------------------2-------------------|

Outro:
e|----------------0-0-----0-----0-2-----2------------------------------------|
B|----0-----0----------------------------------------------------------------|
G|-------2-------------2-------------4--------0-0-----0----------------------|
D|-------2-----2-------1-----1-------2-----2-------2-------------------------|
A|-------2--2----------0--0----------2--2----------3-----3-------------------|
E|-------------------------------------------------2--2----------------------|

e|----------------0-0-----0-----0-2-----2------------------------------------|
B|--0-0-----0----------------------------------------------------------------|
G|-------2-------------2-------------4--------0-0-----0----------------------|
D|-------2-----2-------1-----1-------2-----2-------2-------------------------|
A|-------2--2----------0--0----------2--2----------3-----3-------------------|
E|-------------------------------------------------2--2----------------------|

e|----------------0-0-----0-----0-2-----2------------------------------------|
B|--0-0-----0----------------------------------------------------------------|
G|-------2-------------2-------------4--------0-0-----0----------------------|
D|-------2-----2-------1-----1-------2-----2-------2-------------------------|
A|-------2--2----------0--0----------2--2----------3-----3-------------------|
E|-------------------------------------------------2--2----------------------|

e|----------------0-0-----0-----0-2-----2-----0-2-----2----------------------|
B|--0-0-----0----------------------------------------------------------------|
G|-------2-------------2-------------4-------------4--------0-0-----0--------|
D|-------2-----2-------1-----1-------2-----2-------2-----2-------2-----------|
A|-------2--2----------0--0----------2--2----------2--2----------3-----3-----|
E|---------------------------------------------------------------2--2--------|

e|---0--0--------------------------------------------------------------------|
B|-------------0-0-----0-----------------------------------------------------|
G|---2--2-----------2-----2-----2--------------------------------------------|
D|---1--1-----------2--------2-----------------------------------------------|
A|---0--0-----------2--2-----------2-----------------------------------------|
E|---------------------------------------------------------------------------|



Lyrics:

love, it's a special day.
we should celebrate
and appreciate
that you and me found something pretty neat
and i know some say this day is arbitrary

but it's a good excuse to put our love to use
baby i know what to do, baby i will love you
i'll love you, i'll love you.

love, i don't need those things
i don't need no ring
i don't need anything
but you with me, cause in your company
i feel happy oh so happy and complete

and it's a good excuse to put our love to use
baby i know what to do, baby i will love you
i'll love you, i'll love you.

so wont you be my honey bee
giving me kisses all the time
be mine, be my valentine

so wont you be my honey bee
giving sweet kisses all the time
be mine, be my valentine 
 
===============================================================================
            
Submit corrections

↑ Back to top | Tablatures and chords for acoustic guitar and electric guitar, ukulele, drums are parodies/interpretations of the original songs. You may use it for private study, scholarship, research or language learning purposes only