Home » K » Kina Grannis »

Kina Grannis - Together Tabs

Artists:  A B C D E F G H I J K L M N O P Q R S T U V W X Y Z # 

Together Tabs

(ver. 1) Click to play this song!
Kina Grannis
---------------------------------------
---------------------------------------

I apologize, it probably sounds really confusing but if I can do it you guys can too! 
fun!
Capo on 1st fret!

Intro, also pre-verse(buh da ba baa part):
   C
e|-----0-------0-------0-------0-------0-------0-------0-------0------|
B|-----1-------1-------1-------1-------0-------0-------0-------0------|
G|---0---0---0---0---0---0---0---0---0---0---0---0---0---0---0---0----|
D|--------------------------------------------------------------------|
A|-3-------3-------3-------3-------7-------7-------7-------7----------|
E|--------------------------------------------------------------------|

   Am                         F           G
e|--------------------------------------------------------------------|
B|----1------1------1------1-----1------1-----0-----------------------|
G|----2------2------2------2-----0------0-----0-----------------------|
D|--------------------------------------------------------------------|
A|-0----0--------0----0------------0--------2-------------------------|
E|--------0----0--------0-----1------1----3-----3---------------------|

Verses:
   C                         G                            Am
e|--------------------------------------------------------------------|
B|----1------1------1------1------0------0------0------0-----1------1-|
G|----0------0------0------0------0------0------0------0-----2------2-|
D|------2------2------2-----------------------------------------------|
A|-3------3------3------3----2------2------2------2-------0----0------|
E|-----------------------------3------3------3------3------------0----|

                 F           G
e|-------------------------------------|
B|------1-----1-----1-----1------0-----|
G|------2-----2-----0-----0------0-----|  (x3)
D|-------------------------------------|
A|---0----0-----------0--------2-------|
E|-0--------0----1------1----3-----3---|

Chorus (strum):
    C   G   F   G
e|--0---3---1---3---|
B|--1---0---1---0---|
G|--0---0---2---0---|  (x2)
D|--2---0---3---0---|
A|--3---2---3---2---|
E|--0---3---1---3---|

At ‘Then slowly like a timid flower... of dream’ palm mute/strum:
    C   G   Am  F   G
e|--0---3---0---1---3---|
B|--1---0---1---1---0---|
G|--0---0---2---2---0---|
D|--2---0---2---3---0---|
A|--3---2---0---3---2---|
E|--0---3---0---1---3---|

After the last verse:

Chorus twice > Intro, pluck once > Intro, strum once > Chorus twice > Verse once > end 
C!  All of this while singing chorus.

I'm sorry again. It sounds confusing but you don't have to play the end exactly the 



One time I dreamt an unknown land
With jungle trees and the blackest sand
Had taken us as prisoners in the night

Upon its shore we could not sleep
Instead we stayed awake to keep
Our minds off things like monsters and the like

Hour by hour we passed the time
We watched a motion picture in the sky
You were the clouds and I was the moon

You and me together
You and me together
Together is all we need

Then waves came crashing down on me
And they tried to take me out to sea
You fought them off so gallantly and won

So back again upon our shore
We really wanted nothing more
Then to hold each other 'til our arms grew tired

Then slowly like a timid flower
The sun rose up at just the hour
When we had gently slipped out of my dream

You and me together
You and me together
Together is all we need
            
Submit corrections

↑ Back to top | Tablatures and chords for acoustic guitar and electric guitar, ukulele, drums are parodies/interpretations of the original songs. You may use it for private study, scholarship, research or language learning purposes only