Home » K » Kina Grannis »

Kina Grannis - Sorry Tabs

Artists:  A B C D E F G H I J K L M N O P Q R S T U V W X Y Z # 

Sorry Tabs

(ver. 1) Click to play this song!
Kina Grannis

E|------------------------------------------|
B|-----3---------3--------3---------3-------|
G|------2---------2--------2---------2------|
D|--0----0----0----0----0---0----0----0-----|
A|------------------------------------------|
E|------------------------------------------|   2x
     Intro


E|-----------------------------------------------------------------------------------|
B|-----3---------3--------3---------3---------3---------3-------3---------3----------|
G|------2---------2--------2---------2---------2---------2-------2---------2---------|
D|--0----0---------0--------0---------0---------0---------0-------0---------0--------|
A|-------------4--------2--------0--------------------------------------0------------|
E|-----------------------------------------3---------2--------3----------------------|
     Intro (Mmm..) 2x  +  Verse (Let's stop pretending..)  2x


E|-----------------------------------------------------------------------------------------------------------|
B|----3------3------3------3-------3------3------3------3------3-----3-----3-----3-----3-----3------3-----3--|
G|-----2------2------2------2-------2------2------2------2------2-----2-----2-----2-----2-----2------2-----2-|
D|------0------0------0------0-------0------0------0------0------0-----0-----0-----0-----0-----0------0-----0|
A|--2------2------2------2-------0------0------0------0-------------------------------------------0-----0----|
E|------------------------------------------------------------3----3-----3-----3-----3-----3-----------------|
     Pre-chorus (We should be more than this)


E|--------------------------------------------------------------------------|
B|-----3--------3--------3------3---------3--------3--------3------3--------|
G|------2--------2--------2------2---------2--------2--------2------2-------|
D|---0---0----0---0--------0------0---------0--------0--------0------0------|
A|---------------------4------4---------2--------2--------------------------|
E|--------------------------------------------------------3------3----------|   2x
     Chorus (Oh my lover let's start over..)


E|-----------------------------------------------------------------------------------|
B|-----3---------3--------3---------3---------3---------3-------3---------3----------|
G|------2---------2--------2---------2---------2---------2-------2---------2---------|
D|--0----0---------0--------0----------0---------0---------0-------0---------0-------|
A|-------------4--------2--------0--------------------------------------0------------|
E|-----------------------------------------3---------2--------3----------------------|
     Interlude (Mmm..)


E|------------------------------------------------------------------------|
B|-----3--------3--------3--------3-------3--------3-------3-------3------|
G|------2--------2--------2--------2-------2--------2-------2-------2-----|
D|-------2--------2--------2--------2-------0--------0-------0-------0----|
A|---0--------0--------0--------0-----------------------------------------|
E|--------------------------------------3--------3--------3-------3-------|    4x
      Bridge (Can we stop this now..)


E|----------------------------------------------------------------------------------|
B|-----3---------3--------3---------3---------3---------3-------3---------3---------|
G|------2---------2--------2---------2---------2---------2-------2---------2--------|
D|--0----0---------0--------0---------0---------0---------0-------0---------0-------|
A|-------------4--------2--------0--------------------------------------0-----------|
E|-----------------------------------------3---------2--------3---------------------|
     Outro

E|-----------------------------------------------|
B|-----3---------3--------3---------3------------|
G|------2---------2--------2---------2-----------|
D|--0----0---------0--------0---------0----------|
A|-------------4--------2--------0---------------|
E|-----------------------------------------3-----|
     Mmm...            
Submit corrections

↑ Back to top | Tablatures and chords for acoustic guitar and electric guitar, ukulele, drums are parodies/interpretations of the original songs. You may use it for private study, scholarship, research or language learning purposes only