Home » K » Kina Grannis »

Kina Grannis - Message From Your Heart Tabs

Artists:  A B C D E F G H I J K L M N O P Q R S T U V W X Y Z # 

Message From Your Heart Tabs

(ver. 3) Click to play this song!
Kina Grannis
---------------------------------------------------------------------
          Message From Your Heart
              Kina Grannis
------------------------------------------------------------------------
A very beautiful melody… Inspirational.. I do love it so you should too!
Tuning:EADGBe

Repeat Below
e|-------------------------------------|------------------------------|
B|--------0-------0--------0-------0---|---0-----0-----0-----0--------|
G|----------0-------0--------0-------0-|-----0-----0-----0-----0------|
D|------5-------5--------5-------5-----|--2-----2-----2-----2---------|
A|----3-------3--------3-------3-------|------------------------------|
E|-------------------------------------|-0-----0-----0-----0----------|


Transition #1
e|---0----0----0----0----0----|
B|---0----3----2----3----0----|
G|---0----2----0----2----4----|
D|---2----0----0----0----2----|
A|---2----0----3----0----3----|
E|---0----2----2----2----0----|

Strum this out than transition to and let the second chord ring out
e|---0-----|---0-------|
B|---0-----|---3-------|
G|---4-----|---2-------|
D|---2-----|---0-------|
A|---3-----|---0-------|
E|---0-----|---2-------|

Chorus Time- These are the chords you play
e|---0-----|---0-----|---0-----|---0------|
B|---2-----|---3-----|---0-----|---3------|
G|---0-----|---2-----|---0-----|---2------|
D|---0-----|---0-----|---2-----|---0------|
A|---3-----|---0-----|---2-----|---0------|
E|---2-----|---2-----|---0-----|---2------|

Kina Then Taps the Guitar for some Precusion and plays the bass notes from the intro riff: C,E

Transitions Strum Out Intro As Chords: Some Nice Open Stringed Chords
e|-----0----|-----0---|
B|-----0----|-----0---|
G|-----0----|-----0---|
D|-----5----|-----2---|
A|-----3----|-----0---|
E|-----0----|-----0---|

Next Play:
Transition #1
Chorus
Then for the BUM BUM/ (Tom Green part) play just the first three chords of the chorus…

Don't break me, I bruise easily
The source of both your love and misery

I am steady, beating endlessly
While you are dozing, dreaming pretty things
Lovely things

I don't work for free
Please take care of me

This is a message from your heart
Your most devoted body part
Taking blood and making art
This is a message from your heart
Pounding away into the dark
You could thank me for a start
This is a message from your heart

Don't hurt me, I bleed constantly
My efforts leave me but flow back swiftly

My rhythm, soothing, like raindrops steady
On foggy windows when you gaze outwardly
Peacefully

I don't work for free
Please take care of me
Please take care of me

This is a message from your heart
Your most devoted body part
Taking blood and making art
This is a message from your heart
Pounding away into the dark
You could thank me for a start
This is a message from your heart

Everytime you sleep
Everytime you eat
Everytime you laugh
Everytime you cry
Every time you love

This is a message from your heart
Your most devoted body part
Taking blood and making art
This is a message from your heart
Pounding away into the dark
You could thank me for a start
This is a message from your heart


| /  slide up
| \  slide down
| h  hammer-on
| p  pull-off
| ~  vibrato
| +  harmonic
| x  Mute note
========================================================================
            
Submit corrections

↑ Back to top | Tablatures and chords for acoustic guitar and electric guitar, ukulele, drums are parodies/interpretations of the original songs. You may use it for private study, scholarship, research or language learning purposes only