Home » K » Kina Grannis »

Kina Grannis - Cambridge Tabs

Artists:  A B C D E F G H I J K L M N O P Q R S T U V W X Y Z # 

Cambridge Tabs

(ver. 1) Click to play this song!
Kina Grannis

Tuning: Standard

Capo 4

Chords used:
G:3x0033
Dsus4/F#: 2x0233
Em7: 022033
Cadd9:x32033
D: xx0232
Am: x02210

Intro/Verse:
----------------------------------------------------------|
--------3----------3-----------3----------3---------------|
--------2p0--------2p0---------2p0--------2p0-------------|
----------------------------------------------------------|
----------------------------------------------------------|
---3-3--------3-3----------3-3--------3-3-----------------|

------------------------------------------------------------|
------3---------3----------3--------3-----------------------|
------2p0-------2p0--------2p0------2p0---------------------|
------------------------------------------------------------|
------------------------------------------------------------|
--0-0-------0-0--------0-0------0-0-------------------------|

Pre-Chorus:
---------------------------------------------------------------------|
---------------------------------------------------------------------|
-----0-------0-------0--------0--------0-------0------0--------0-----|  (x2)
-------0-------0-------0--------0--------0-------0-------0-------0---|
--3--------3-------3-------3---------5-------5------5--------5-------|
---------------------------------------------------------------------|

Chorus:
G          Dsus4/F#  Em7             Cadd9        D
I'm waiting                for you to say you're here to stay
G          Dsus4/F#   Em7                      Cadd9
But darling,            if you know that it's through
                              D
You can't keep doing what you do
If it's time to let go of you

Verse 2: Same as verse 1

Pre-Chorus

Chorus

Bridge:
Am               Dsus4/F#
You once whispered words to me
              G     Dsus4/F#          Em7             Cadd9
Wondering if anybody loved each other like we do
                   Dsus4/F#
I guess that's not enough for you
                G  Dsus4/F#   Em7             Cadd9
Tell me or I'm going       to let you go
        Dsus4/F#
If it's time to let go of you

End with intro/verse
            
Submit corrections

↑ Back to top | Tablatures and chords for acoustic guitar and electric guitar, ukulele, drums are parodies/interpretations of the original songs. You may use it for private study, scholarship, research or language learning purposes only