» » »

Killswitch Engage - Reject Yourself Tabs

Artists:  A B C D E F G H I J K L M N O P Q R S T U V W X Y Z # 

Reject Yourself Tabs

(ver. 1) Click to play this song!
Killswitch Engage
 Rating:
4/5 (4 votes)

 Reject Yourself lessons Tabs too difficult? Try these video lessons and learn fast
 
                ----------------------------------------------------------------------------
----------------------------------------------------------------------------


Tuning:C G C F A D 


Intro
|----------------------------------------------------------------|
|----------------------------------------------------------------|
|----------------------------------------------------------------|
|-----7--6------------------7--6----------------7-6--------------|
|----------7h9-7p0h7p0-----------7h9-7p0h7p0---------7h97p0h7p0--|
|--44--4----------------44--4---------------00-0-----------------|
               
|---------------------------------||---------------------------------|
|---------------------------------||---------------------------------|
|------9-----9--6h7p6-------------||---6h7p6-------------------------|
|--6-7---6-7---------9-7-6--------||---------9-7-6---6h7p6-----------|
|-------------------------7-------||---------------7-------9-7-5-4---|
|---------------------------------||---------------------------------|


verse
|----------------------------------------------------------|
|----------------------------------------------------------|
|----------------------------------------------------------|
|--------7-6-7-----------------------7-6-7-----------7-6-4-|
|----------------------7-5-4-------------------------------|
|--4-444--------4-444---------9-999-------11-111111--------|


interlude?
|------------------------------------------|
|------------------------------------------|
|----------------11111111-9999-7777-6666---|
|-7777-6666-7777---------------------------|
|------------------------------------------|
|------------------------------------------|

verse

pre chorus (hard to hear but its right)
|-----------0-------------------------------------|
|-------0-----0-----------------------------------|
|-----6---------6---------------------------------|
|----7-7----------7--4----------------------------|
|-5------------------4-4-4-4-4-4-4-4-4-4-------5--|
|--------------------4-4-4-4-4-4-4-4-4-4-4h6h7----|
|
|-------------------------------------------------|
|-------------------------------------------------|
|-------------------------------------------------|
|--------------------4----------------------------|
|-0------------------4-4-4-4-4-4-4-4-4-4-------5--|
|-0------------------4-4-4-4-4-4-4-4-4-4-4h6h7----|

                                       
|----------0--------------------------|-----------|-----------------|
|-------0----0-------9/10-10--9/10-10-|-7/9-9--5--|-9---------------|
|-----6--------6----------------------|-----------|-----------------|
|----7-7---------7---6/-7--7--6/-7--7-|-4/6-6--2--|-6-----7---6-----|
|-5-----------------------------------|-----------|---------------7-|
|-------------------------------------|-----------|----22---2---2---|
|
|-------------------------------------|-----------|-----------------|
|-------------------------------------|-----------|-----------------|
|-------------------------------------|-----------|-----------------|
|--------------------6/7--7--6/7--7---|-4\6-6--2--|-6------7---6----|
|-0------------------4-4--4--4-4--4---|-2-2-2--2--|-4-------------7-|
|-0------------------4-4--4--4-4--4---|-2-2-2--2--|-4---22---2---2--|


chorus
2x
|----------------------------------------------------------------|
|----------------------------------------------------------------|
|----------------------------------------------------------------|
|-----7--6------------------7--6----------------7-6--------------|
|----------7h9-7p0h7p0-----------7h9-7p0h7p0---------7h97p0h7p0--|
|--44--4----------------44--4---------------00-0-----------------|
|---------------------------------|
|---------------------------------|
|------9-----9--6h7p6-------------|
|--6-7---6-7---------9-7-6--------|
|-------------------------7-------|
|---------------------------------|
1x
|-----------------------------------------------------------|
|-----------------------------------------------------------|
|-----------------------------------------------------------|
|----7-6----------------7-6----------------7-6--------------|
|--------7h9-7p0h7p0-------7h9-7p0h7p0---------7h9-7p0h7p0--|
|--22-2---------------22-2---------------00-0---------------|

|---------------------------------|
|---------------------------------|
|---6h7p6-------------------------|
|---------9-7-6---6h7p6-----------|
|---------------7-------9-7-5-4---|
|---------------------------------|

verse 
interlude?
pre chorus
chorus

clean/acoustic part
|-----------------------------------0------|
|-----0--0-----0--0-------------------0----|
|---6--6-----6--6----6---6---6----6--------|
|--7-------7--------7---7---7----7---------|
|-9-------9--------9---0---4---------------|
|------------------------------5-----------|

|----------------------------------0------|
|-----0--0-----0--0------------------0----|
|---6--6-----6--6-------6---6----6--------|
|--7-------7-----------7---7----7---------|
|-9-------9-----------0---4---------------|
|-----------------------------5-----------|


breakdown
|-----------------------------------------------|
|-----------------------------------------------|
|-----------------------------------------------|
|--7-----7-----6-----6-----4-----4-------9-9-9--|
|----------------------------------------4-4-4--|
|---4444--4444--4444--4444--4444--4444--4-4-4---|

|------------------------------------------|
|----10/13------10-----9------10-----------|
|------------------------------------------|
|----9-/11------7------6------7------------|
|------------------------------------------|
|------------------------------------------|



"can you reject yourself.."
|-------------------------------------------------|
|--10----9-----7-----5------10----9-----10----10--|
|-------------------------------------------------|
|--7-----6-----4-----2------7-----6-----7-----7---|
|-------------------------------------------------|
|-------------------------------------------------|


acoustic/clean part

outro
|--------------------------------------------|
|--------------------------------------------|
|---------------------------6----------------|
|--4-------4--------4---7---6---5------------|
|--4-44-4--4-44-4---4---7---4---5------------|
|--4-44-4--4-44-4---4---7-------5------------|
|
|-------------------------------------------------------------------|
|-------------------------------------------------------------------|
|-------------------------------------------------------------------|
|-------------------------------------------------------------------|
|-9p0-7p0-9p0-7p0-9p0-9p0-7p0--9p0-7p0-9p0-7p0--4p0-5p0-4p0-5p0-4p0-|
|-------------------------------------------------------------------|


|------------------------------------------|
|------------------------------------------|
|-------------------------6----------------|
|--4-------4----------7---6---5------------|
|--4-44-4--4-44-4-----7---4---5------------|
|--4-44-4--4-44-4-----7-------5------------|
|
|-------------------------------------------------------------|
|-------------------------------------------------------------|
|-------------------------------------------------------------|
|-------------------------------------------------------------|
|--9p0-7p0-9p0-7p0-9p0-9p0-7p0--9p0-7p0-9p0-7p0--4p0-5p0-4p0--|
|-------------------------------------------------------------|
            
Submit corrections


        Reject Yourself lessons Hard to play? Try these video lessons and learn fast Reject Yourself lessons
        
↑ Back to top | Tablatures and chords for acoustic guitar and electric guitar, ukulele, drums are parodies/interpretations of the original songs. You may use it for private study, scholarship, research or language learning purposes only