» » »

Killswitch Engage - My Last Seranade Tabs

Artists:  A B C D E F G H I J K L M N O P Q R S T U V W X Y Z # 

My Last Seranade Tabs

(ver. 3) Click to play this song!
Killswitch Engage
 Rating:
4/5 (4 votes)

 My Last Seranade lessons Tabs too difficult? Try these video lessons and learn fast
 
                INTRO
    
CLEAN GUITAR
d|-1---0---1---1--|
A|-1---1---1---1--|
F|-2---0---3---3--|  X4
C|-0---0---3---3--|
G|-0---3---1---1--|
C|----------------|

d|-------------------------------|-----------------|
A|-------------------------------|-----------------|
F|-------------------------------|-----------------|  X4
C|-------------------------------|-----------------|
G|-------0-0-------0-0-------0-0-|-----------------|
C|-1H4P0-0-0-1H4P0-0-0-1H4P0-0-0-|-4-3-2-0-5-4-3-0-|
         . .       . .       . .   . . . . . . . .

VERSE 1

d|-------------|-----------|-----------------------------|
A|-------------|-----------|-----------------------------|
F|-------------|-----------|--------------3--------------| x 4
C|-------------|-----------|--------------3--------------|       
G|-1p0-1-3-1-0-|-0-1-3-1-0-|-1p0-1-3-1-00-1-00-3-00-3-00-|
C|-1p0-1-3-1-0-|-0-1-3-1-0-|-1p0-1-3-1-00---00-3-00-2-00-|
      . . .     . . . .         . . . ..   ..   ..   ..
d|-------------------------------|-----------------|
A|-------------------------------|-----------------|
F|-------------------------------|-----------------|  X3
C|-------------------------------|-----------------|
G|-------0-0-------0-0-------0-0-|-----------------|
C|-1H4P0-0-0-1H4P0-0-0-1H4P0-0-0-|-4-3-2-0-5-4-3-0-|
         . .       . .       . .   . . . . . . . .
d|---------------------------------|
A|---------------------------------|
F|---------------------------------|
C|---------------------------------|
G|-------0-0-------0-0-------0-0-/-|
C|-1H4P0-0-0-1H4P0-0-0-1H4P0-0-0-/-|
         . .       . .       . .   

PRE CHORUS

d|---------------|--------|--------|----------|--------|--------|----------|
A|---------------|--------|--------|----------|--------|--------|----------|
F|---------------|--------|--------|----------|--------|--------|----------|
C|-3--P0-0-------|--------|--------|--10---10-|--10-10-|--5/7-5-|--3/5-3---|
G|-3--P0-0-----0-|------0-|------0-|--8----7--|--7-/8--|--3/5-3-|--1/3-1---|
C|-3--P0-0-0-0-0-|0-0-0-0-|0-0-0-0-|0----0----|0-------|0-------|0-------0-|
           . .    . . .    . . .    .    .     .        .        .       .
CHORUS
GUITAR 1
d|-----------|---------|-----------|---------|-----------|---------|-------------|-------------|
A|-----------|---------|-----------|---------|-----------|---------|-------------|-------------|
F|-----------|---------|-5-5-5-5-5-|-5-5-5-5-|-3-3-3-3-3-|-3-3-3-3-|-------------|-------------|
C|-0-0-0-0-0-|-0-0-0-0-|-5-5-5-5-5-|-5-5-5-5-|-3-3-3-3-3-|-3-3-3-3-|-----2---3P2-|---------2P3-|
G|-0-0-0-0-0-|-0-0-0-0-|-3-3-3-3-3-|-3-3-3-3-|-1-1-1-1-1-|-1-1-1-1-|-------------|-----3-------|
C|-0-0-0-0-0-|-0-0-0-0-|-----------|---------|-----------|---------|-0-3---3-----|-0-3---3-----|
   D D U U D   D U D U   D D U U D   D U D U   D D U U D   D U D U     .   .         .   .
 GUITAR 2
d|-----------|---------|-----------|---------|-----------|---------|------------|-------------|
A|-6-6-6-6-6-|-6-6-6-6-|-5-5-5-5-5-|-5-5-5-5-|-6-6-6-6-6-|-6-6-6-6-|------------|-------------|
F|-5-5-5-5-5-|-5-5-5-5-|-5-5-5-5-5-|-5-5-5-5-|-5-5-5-5-5-|-5-5-5-5-|------------|-------------|
C|-3-3-3-3-3-|-3-3-3-3-|-3-3-3-3-3-|-3-3-3-3-|-3-3-3-3-3-|-3-3-3-3-|----2---3P2-|---------2H3-|
G|-----------|---------|-----------|---------|-----------|---------|------------|-----3-------|
C|-----------|---------|-----------|---------|-----------|---------|0-3---3-----|-0-3---3-----|
   D D U U D   D U D U   D D U U D   D U D U   D D U U D   D U D U     .   .         .   .

                                                             .   .         .   .
VERSE 2

d|------------------|-----------|---------------|-----------------|
A|------------------|-----------|---------------|-----------------|
F|------------------|-----------|---------------|-----------------|
C|-------10/12------|-----------|---------------|---------------3-| X3
G|-----8-------10---|-0-0-0-0-0-|-0-0-0-0-0-0-0-|-0-0-0-0-0-0-0-3-|
C|-0-7------------8-|-0-0-0-0-0-|-0-0-0-0-0-0-0-|-0-0-0-0-0-0-0-3-|
                      . . . . .   . . . . . . .   . . . . . . .
d|-------------------|-------------|
A|-------------------|-------------|
F|-------------------|-------------|
C|-------10/12-------|------3P2----|
G|-----8-------10----|-------------|
C|-0-7-------------8-|-8/-0-----0--|
                          .     .
GUITAR 1
d|-------------|-----------|-----------------------------|
A|-------------|-----------|-----------------------------|
F|-------------|-----------|--------------3--------------| x 4
C|-------------|-----------|--------------3--------------|       
G|-1p0-1-3-1-0-|-0-1-3-1-0-|-1p0-1-3-1-00-1-00-3-00-3-00-|
C|-1p0-1-3-1-0-|-0-1-3-1-0-|-1p0-1-3-1-00---00-3-00-2-00-|
       . . .     . . . .         . . . ..   ..   ..   ..

GUITAR 2
 
(        X4        ) (            X2           ) (        X2        ) 
d|---------|---------|-------------|-------------|---------|---------|
A|-3-3-3-3-|-3-3-3-3-|-6--6--6--6--|-6--6--6--6--|-3-3-3-3-|-3-3-3-3-|
F|-7-7-7-7-|-7-7-7-7-|-10-10-10-10-|-10-10-10-10-|-7-7-7-7-|-7-7-7-7-|
C|---------|---------|-------------|-------------|---------|---------|
G|---------|---------|-------------|-------------|---------|---------|
C|---------|---------|-------------|-------------|---------|---------|

            
Submit corrections


        My Last Seranade lessons Hard to play? Try these video lessons and learn fast My Last Seranade lessons
        
↑ Back to top | Tablatures and chords for acoustic guitar and electric guitar, ukulele, drums are parodies/interpretations of the original songs. You may use it for private study, scholarship, research or language learning purposes only