» » »

Killswitch Engage - Holy Diver Tabs

Artists:  A B C D E F G H I J K L M N O P Q R S T U V W X Y Z # 

Holy Diver Tabs

(ver. 3) Click to play this song!
Killswitch Engage
 Rating:
4/5 (4 votes)

 Holy Diver lessons Tabs too difficult? Try these video lessons and learn fast
 
                things missing
- solo
- some parts after the solo

intro
   GTR 1
D|-----------------------------------------------------
A|-----------------------------------------------------
F|-----------------------------------------------------
C|-----------------------------------------------------
G|-5-----5-----5-7-8--5-----5-5-7-8\3--5-----5-5-7-8\3-                   
C|---0-0---0-0----------0-0--------------0-0-----------

D|--------|
A|--------|
F|--------|
C|-7-5-7--|
G|-5-3-5--|
C|--------|
             GTR 2
D|-----------------------------------------------------------|
A|-----------------------------------------------------------|
F|-----------------------------------------------------------|
C|-----------------------------------------------------------|
G|-8-----8-----8-10-12--8-----8-8-10-12\7--8-----8-8-10-12\7-|
C|---0-0---0-0------------0-0----------------0-0-------------|

D|--------|
A|--------|
F|--------|
C|-7-5-7--|
G|-5-3-5--|
C|--------|
                                 
"Mmmmmmhmmmmm"


   GTR 1
D|-----------------------------------------------------
A|-----------------------------------------------------
F|-----------------------------------------------------
C|-----------------------------------------------------
G|-5-----5-----5-7-8--5-----5-5-7-8\3--5-----5-5-7-8\3-                   
C|---0-0---0-0----------0-0--------------0-0-----------

D|--------|
A|--------|
F|--------|    "Yeeeeaaaaaa, yeaaaaaa"   
C|-7-5-3--|
G|-5-3-1--|
C|--------|
             GTR 2
D|-----------------------------------------------------------|
A|-----------------------------------------------------------|
F|-----------------------------------------------------------|
C|-----------------------------------------------------------|
G|-8-----8-----8-10-12--8-----8-8-10-12\7--8-----8-8-10-12\7-|
C|---0-0---0-0------------0-0----------------0-0-------------|

D|--------------|
A|--------------|
F|--------------|
C|-7-5-3--------|
G|-5-3-1--------|
C|---------3*---|

verse

D|------------------------------------------------------------------
A|------------------------------------------------------------------
F|------------------------------------------------------------------
C|------------------------------------------------------------------
G|-0--0-0-0--0-0-0--0-0-0--0-0--0--0-0-0--0-0-0--0-0--8-0--0-0-0-0-0
C|-0--0-0-0--0-0-0--0-0-0--0-0--0--0-0-0--0-0-0--0-0--8-0--0-0-0-0-0
      . . .  . . .  . . .  . .     . . .  . . .  . .       . .   . .
D|----------------------------|
A|----------------------------|
F|----------------------------|  (i know theres a part here i just havent
C|----------------------------|    figured it out yet)
G|-10-10-10-10-10-10-8~-------|
C|-10-10-10-10-10-10-8~----3*-|              
      .  .     .  .                 
D|------------------------------------------------------------------
A|------------------------------------------------------------------
F|------------------------------------------------------------------
C|------------------------------------------------------------------
G|-0--0-0-0--0-0-0--0-0-0--0-0--0--0-0-0--0-0-0--0-0--8-0--0-0-0-0-0
C|-0--0-0-0--0-0-0--0-0-0--0-0--0--0-0-0--0-0-0--0-0--8-0--0-0-0-0-0
      . . .  . . .  . . .  . .     . . .  . . .  . .       . .   . .
D|----------------------------|
A|----------------------------|
F|----------------------------|
C|----------------------------|
G|-10-10-10-10-10-10-0~-------|
C|-10-10-10-10-10-10-0~-------|              
      .  .     .  .                 

pre-Chorus

D|--------------------|
A|--------------------|
F|--------------------|
C|3-3-3-3-3-3-3-3-3-3-|
G|1-1-1-1-1-1-1-1-1-1-|
C|--------------------|

Chorus (same as verse)
  GTR 1
D|-----------------------------------------------------
A|-----------------------------------------------------
F|-----------------------------------------------------
C|-----------------------------------------------------
G|-5-----5-----5-7-8--5-----5-5-7-8\3--5-----5-5-7-8\3-                   
C|---0-0---0-0----------0-0--------------0-0-----------

D|--------|
A|--------|
F|--------|       
C|-7-5-3--|
G|-5-3-1--|
C|--------|
             GTR 2
D|-----------------------------------------------------------|
A|-----------------------------------------------------------|
F|-----------------------------------------------------------|
C|-----------------------------------------------------------|
G|-8-----8-----8-10-12--8-----8-8-10-12\7--8-----8-8-10-12\7-|
C|---0-0---0-0------------0-0----------------0-0-------------|

D|---------|
A|---------|
F|---------|
C|-7-5-3---|
G|-5-3-1---|
C|---------|

verse 2

D|------------------------------------------------------------------
A|------------------------------------------------------------------
F|------------------------------------------------------------------
C|------------------------------------------------------------------
G|-0--0-0-0--0-0-0--0-0-0--0-0--0--0-0-0--0-0-0--0-0--8-0--0-0-0-0-0
C|-0--0-0-0--0-0-0--0-0-0--0-0--0--0-0-0--0-0-0--0-0--8-0--0-0-0-0-0
      . . .  . . .  . . .  . .     . . .  . . .  . .       . .   . .
D|----------------------------|
A|----------------------------|
F|----------------------------|  
C|----------------------------|    
G|-10-10-10-10-10-10-8~-------|
C|-10-10-10-10-10-10-8~----3*-|              
      .  .     .  .                 
D|------------------------------------------------------------------
A|------------------------------------------------------------------
F|------------------------------------------------------------------
C|------------------------------------------------------------------
G|-0--0-0-0--0-0-0--0-0-0--0-0--0--0-0-0--0-0-0--0-0--8-0--0-0-0-0-0
C|-0--0-0-0--0-0-0--0-0-0--0-0--0--0-0-0--0-0-0--0-0--8-0--0-0-0-0-0
      . . .  . . .  . . .  . .     . . .  . . .  . .       . .   . .
D|----------------------------|
A|----------------------------|
F|----------------------------|
C|----------------------------|
G|-10-10-10-10-10-10-0~-------|
C|-10-10-10-10-10-10-0~-------|              
      .  .     .  .                 

D|----------------------------|
A|----------------------------|
F|----------------------------|  "Gotta get awaaayy, get awayyyy!"
C|3-3-3-3-3-3-3-3-3-3--5-5-5-5|
G|1-1-1-1-1-1-1-1-1-1--3-3-3-3|
C|----------------------------|

"BETWEEN THE VELVET LINES"

D|----------------------|
A|----------------------|
F|----------------------|   x2
C|----------------------|
G|--------------------8~|
C|000000-101010101010-8~|

verse-ish

"Holy diver, your the star of the masquerade!..."

D|------------------|
A|------------------|
F|------------------|
C|------------------|
G|0~~~~-8-0~~-10-8--|
C|0~~~~-8-0~~-10-8--|

"Jump on the tiger!, you can feel his heart but you know hes mean!"

D|----------------------------------------------------------------------
A|----------------------------------------------------------------------
F|----------------------------------------------------------------------
C|----------------------------------------------------------------------
G|----------------------------------------------------------------------
C|-000-000-000-000-000-000-000-000-000-000-000-000-000-000-888-888-000--

D|-----------------------------------------|
A|-----------------------------------------|
F|-----------------------------------------|
C|-----------------------------------------|
G|----------------------------------------8|
C|000-000-000-101010-101010-101010-101010-8|

SOLO (that i dont know)

verse 
D|------------------------------------------------------------------
A|------------------------------------------------------------------
F|------------------------------------------------------------------
C|------------------------------------------------------------------
G|-0--0-0-0--0-0-0--0-0-0--0-0--0--0-0-0--0-0-0--0-0--8-0--0-0-0-0-0
C|-0--0-0-0--0-0-0--0-0-0--0-0--0--0-0-0--0-0-0--0-0--8-0--0-0-0-0-0
      . . .  . . .  . . .  . .     . . .  . . .  . .       . .   . .
D|--------------------------|
A|--------------------------|
F|--------------------------|  
C|--------------------------|    
G|-10-10-10-10-10-10-8~-----|
C|-10-10-10-10-10-10-8~-----|              
      .  .     .  .                 
D|------------------------------------------------------------------
A|------------------------------------------------------------------
F|------------------------------------------------------------------
C|------------------------------------------------------------------
G|-0--0-0-0--0-0-0--0-0-0--0-0--0--0-0-0--0-0-0--0-0--8-0--0-0-0-0-0
C|-0--0-0-0--0-0-0--0-0-0--0-0--0--0-0-0--0-0-0--0-0--8-0--0-0-0-0-0
      . . .  . . .  . . .  . .     . . .  . . .  . .       . .   . .
D|----------------------------|
A|----------------------------|
F|----------------------------|
C|----------------------------|
G|-10-10-10-10-10-10-0~-------|
C|-10-10-10-10-10-10-0~-------|              
      .  .     .  .                 

D|----------------------------|
A|----------------------------|
F|----------------------------|  "Gotta get awaaayy, get awayyyy!"
C|3-3-3-3-3-3-3-3-3-3--5-5-5-5|
G|1-1-1-1-1-1-1-1-1-1--3-3-3-3|
C|----------------------------|

back to intro riff.


   GTR 1
D|-----------------------------------------------------
A|-----------------------------------------------------
F|-----------------------------------------------------
C|-----------------------------------------------------
G|-5-----5-----5-7-8--5-----5-5-7-8\3--5-----5-5-7-8\3-                   
C|---0-0---0-0----------0-0--------------0-0-----------

D|--------|
A|--------|
F|--------|
C|-7-5-7--|
G|-5-3-5--|
C|--------|
             GTR 2
D|-----------------------------------------------------------|
A|-----------------------------------------------------------|
F|-----------------------------------------------------------|
C|-----------------------------------------------------------|
G|-8-----8-----8-10-12--8-----8-8-10-12\7--8-----8-8-10-12\7-|
C|---0-0---0-0------------0-0----------------0-0-------------|

theres a harmony lick that i dont know.

and thats it for now. so comment and help me improve
            
Submit corrections


        Holy Diver lessons Hard to play? Try these video lessons and learn fast Holy Diver lessons
        
↑ Back to top | Tablatures and chords for acoustic guitar and electric guitar, ukulele, drums are parodies/interpretations of the original songs. You may use it for private study, scholarship, research or language learning purposes only