» » »

Killswitch Engage - For You Tabs

Artists:  A B C D E F G H I J K L M N O P Q R S T U V W X Y Z # 

For You Tabs

(ver. 1) Click to play this song!
Killswitch Engage
 Rating:
4/5 (4 votes)

 For You lessons Tabs too difficult? Try these video lessons and learn fast
 
                Killswitch Engage

As Daylight Dies - 2006
For You(C G C F A D)

chilean engaging


D |----------------------------------------------------------|
A |----------------------------------------------------------|
F |----------------------------------------------------------|
C |-5-4-------4-3-------5-4-------4-3-----------6-5----------|  x6
G |-3-2--020--2-1--020--3-2--020--2-1--020------4-3----------|
C |------020-------020-------020-------020-------------------|


D |----------------------------------------------|
A |----------------------------------------------|
F |--------------------------------------5--7/---|    X2
C |-0-00-0---0-00-0---0-00-0---0-3-0-5-0-3--5/---|
G |-0-00-0---0-00-0---0-00-0---0-3-0-5-0---------|
C |-0-00-0---0-00-0---0-00-0---0-3-0-5-0---------|                                      M


D |----------------------------------------------|
A |----------------------------------------------|
F |--------------------------------------5--7/---|
C |-00-0*----00-0*----00-0*----0-3-0-5-0-3--5/---|    X2
G |-00-0*----00-0*----00-0*----0-3-0-5-0---------|
C |-00-0*----00-0*----00-0*----0-3-0-5-0---------|


Chorus

D |-----------------------------------|
A |-----------------------------------|
F |-----------------------------------| X3
C |--------------------10--8---7h8h7--|
G |----8----8---8---8-----------------|
C |-00---00---0---0-------------------|


D |----------------------------------------|
A |----------------------------------------|
F |----------------------------------------|
C |--5/7---5-------------------------------|
G |--3/5---3----------------------3----5---|
C |-----------5----3---0--3---5------------|


D |----------------------------------------------------------|
A |----------------------------------------------------------|
F |----------------------------------------------------------|
C |-5-4-------4-3-------5-4-------4-3-----------6-5----------|  x4
G |-3-2--020--2-1--020--3-2--020--2-1--020------4-3----------|
C |------020-------020-------020-------020-------------------|


D |----------------------------------------------|
A |----------------------------------------------|
F |--------------------------------------5--7/---|    X2
C |-0-00-0---0-00-0---0-00-0---0-3-0-5-0-3--5/---|
G |-0-00-0---0-00-0---0-00-0---0-3-0-5-0---------|
C |-0-00-0---0-00-0---0-00-0---0-3-0-5-0---------|

D |----------------------------------------------|
A |----------------------------------------------|
F |--------------------------------------5--7/---|
C |-00-0*----00-0*----00-0*----0-3-0-5-0-3--5/---|    X2
G |-00-0*----00-0*----00-0*----0-3-0-5-0---------|
C |-00-0*----00-0*----00-0*----0-3-0-5-0---------|

chorus

D |--------------------------|
A |--------------------------|
F |--------------------------|
C |---5----------------------| X3
G |-0-3--5--3---------3--5---|
C |-0----5--3---3--5---------|

D|-----------|--------------------------------------------------------------------------|
A|-----------|--------------------------------------------------------------------------|
F|-----------|------10---10--7---------7----7------------7----7-----------5----5--------|
C|---5-------|---------------------------------8------------------8---------------7-----|
G|-0-3--1*---|-5-5-----5----------5-5-----5--------5-5-----5----------5-5----5----------|
C|-0----1*---|--------------------------------------------------------------------------|


D |------------------------------------------------------------------|
A |------------------------------------------------------------------|
F |--------------------------7---------------7-----------------------|
C |------7----7-8------8-------8--------8------8----------7----7-8---|X3
G |-5-5-----5------5-5----5--------5-5-----5---------5-5-----5-------|
C |------------------------------------------------------------------|


play this notes.. according to the song...
D |-----------------------------------------------------------|
A |-----------------------------------------------------------|
F |---10---9----10--9-----------------------------------------|
C |-----------------------------------------------------------|
G |---8----7----8---7-----------------------------------------|
C |-----------------------------------------------------------|

D |----------------------------------------------------------|
A |----------------------------------------------------------|
F |----------------------------------------------------------|
C |-5-4-------4-3-------5-4-------4-3------------------------|
G |-3-2--020--2-1--020--3-2--020--2-1--020----0--------------|
C |------020-------020-------020-------020----0--------------|

chorus
            
Submit corrections


        For You lessons Hard to play? Try these video lessons and learn fast For You lessons
        
↑ Back to top | Tablatures and chords for acoustic guitar and electric guitar, ukulele, drums are parodies/interpretations of the original songs. You may use it for private study, scholarship, research or language learning purposes only