» » »

Killswitch Engage - Fixation On The Darkness Tabs

Artists:  A B C D E F G H I J K L M N O P Q R S T U V W X Y Z # 

Fixation On The Darkness Tabs

(ver. 3) Click to play this song!
Killswitch Engage
 Rating:
4/5 (4 votes)

 Fixation On The Darkness lessons Tabs too difficult? Try these video lessons and learn fast
 
                Tuning C G C F A D

Intro: Guitar 1
D|-------------|--------------------------------------------------------|
A|-------------|--------------------------------------------------------|
F|--x--x-------|--------------------------------------------------------|
C|--x--x-------|--------------------------------------------------------|
G|--x--x--12\\-|-5-----3-5-----5-----5-----3-6-----6-----3h6p3p0--5-----|
C|--x--x--12\\-|---0-0-----0-0---0-0---0-0-----0-0---0-0------------0-0-|
pm                 ...     ...   ...   ...     ...   ...            ...   

             

Intro: Guitar 2
D|-------------|--------------------------------------------------------|
A|-------------|--------------------------------------------------------|
F|--0--0-------|--------------------------------------------------------|
C|--0--0-------|-0~---------------------0---------------6---------0~----|
G|--0--0--12\\-|-0~---------------------0---------------6---------0~----|
C|--0--0--12\\-|-0~---------------------0---------------6---------0~----|

Guitar 1
D|----------------------------------------------------|
A|----------------------------------------------------|
F|----------------------------------------------------|
C|----------------------------------------------------|
G|--3-5-----5-----5-----3--6-----3h6p3p0-------3------|
C|------0-0---0-0---0-0------0-0----------5h6---------|
pm      ...   ...   ...      ...

Guitar 2
D|----------------------------------------------------|
A|----------------------------------------------------|
F|----------------------------------------------------|
C|----------------------0~-----------------6----------|
G|----------------------0~-----------------6----------|
C|----------------------0~-----------------6----------|

Guitar 1:  Hee   ya
D|----------------------------------------------------------------------------|
A|----------------------------------------------------------------------------|
F|----------------------------------------------------------------------------|
C|----------------------------------------------------------------------------|
G|--5------3--5------5-----5-----3--6------6------3h6p3p0---5-------3---5-----|
C|-----0-0-------0-0---0-0---0-0-------0-0----0-0---------------0-0-------0-0-|
pm     ...       ...   ...   ...       ...    ...               ...       ...

Guitar 2 continued
D|-----------------------------------------------------||
A|-----------------------------------------------------||
F|-----------------------------------------------------||o guitar 2
C|-----------------------------------------------------||o repeats this
G|--0-0-----------0-0-0-0-0-0----------0-0---------3---||
C|--0-0-----------0-0-0-0-0-0----------0-0---------5h6-||
pm.........................................

Guitar 1: continued
D|----------------------------------------------------|
A|----------------------------------------------------|
F|----------------------------------------------------|
C|----------------------------------------------------|
G|------5-------5-------3---6-------3h6p3p0--------3--|
C|--0-0-----0-0-----0-0---------0-0----------5/h6-----|
pm ....     ...     ...         ...

1st Verse: Guitar 1 and 2   * - pinch harmonic
D|----------------------------------------------------|
A|----------------------------------------------------|
F|----------------------------------------------------|
C|-----------------------------3--3--3----------------|
G|--0--------0-----1-----0-----1--0--1----------------|
C|--0--0--0--0--0--1--0--0--0-----------3/6--6*-------|
pm     ....     .     .     .

Verse continued...
D|----------------------------------------------------|
A|----------------------------------------------------|
F|----------------------------------------------------|
C|-----------------------------3--3--3----------------|
G|--0--------0-----1-----0-----1--0--1--1/4--4*-------|
C|--0--0--0--0--0--1--0--0--0-------------------------|
pm     ....     .     .     .

continued...
D|----------------------------------------------------|
A|----------------------------------------------------|
F|----------------------------------------------------|
C|-----------------------------3--3--3----------------|
G|--0--------0-----1-----0-----1--0--1----------------|
C|--0--0--0--0--0--1--0--0--0-----------3/6--6*-------|
pm     ....     .     .     .
continued...
D|----------------------------------------------------|
A|----------------------------------------------------|
F|----------------------------------------------------|
C|-----------------------------3--3--3--3/6--6\-------|
G|--0--------0-----1-----0-----1--0--1--1/4--4\-------|
C|--0--0--0--0--0--1--0--0--0-------------------------|
pm     ....     .     .     .

Pre-Chorus: Guitar 1
D|----------------------------------------------------------------------------|
A|----------------------------------------------------------------------------|
F|----------------------------------------------------------------------------|
C|----------------------------------------------------------------------------|
G|--5------3--5------5-----5-----3--6------6------3h6p3p0---5-------3---5-----|
C|-----0-0-------0-0---0-0---0-0-------0-0----0-0---------------0-0-------0-0-|
pm     ...       ...   ...   ...       ...    ...               ...       ...

Pre-Chorus: Guitar 2
D|-----------------------------------------------------|
A|-----------------------------------------------------|
F|-----------------------------------------------------|
C|-----------------------------------------------------|
G|--0-0-----------0-0-0-0-0-0----------0-0---------3---|
C|--0-0-----------0-0-0-0-0-0----------0-0---------5h6-|
pm.........................................

2nd and 3rd Verses:
D|----------------------------------------------------|
A|----------------------------------------------------|
F|----------------------------------------------------|
C|-----------------------------3--3--3----------------|
G|--0--------0-----1-----0-----1--0--1----------------|
C|--0--0--0--0--0--1--0--0--0-----------3/6--6*-------|
pm     ....     .     .     .

Verse continued...
D|----------------------------------------------------|
A|----------------------------------------------------|
F|----------------------------------------------------|
C|-----------------------------3--3--3----------------|
G|--0--------0-----1-----0-----1--0--1--1/4--4*-------|
C|--0--0--0--0--0--1--0--0--0-------------------------|
pm     ....     .     .     .

continued...
D|----------------------------------------------------|
A|----------------------------------------------------|
F|----------------------------------------------------|
C|-----------------------------3--3--3----------------|
G|--0--------0-----1-----0-----1--0--1----------------|
C|--0--0--0--0--0--1--0--0--0-----------3/6--6*-------|
pm     ....     .     .     .

continued...
D|-----------------------------------------------------------------|
A|-----------------------------------------------------------------|
F|-----------------------------------------------------------------|
C|-----------------------------3--3--3--3/6--6\----4/5---p4--------|
G|--0--------0-----1-----0-----1--0--1--1/4--4\---------------5--0-|
C|--0--0--0--0--0--1--0--0--0--------------------------------------|
pm     ....     .     .     .

Chorus: Guitar 1 and 2
D|----------3----------------2-------------0-----------------3---------|
A|-----3------3-------3--------3-------3-----3--------3--------3-------|
F|-------0------0-------0--------0-------2-----2--------0--------0-----|
C|---------------------------------------------------------------------|
G|----------------3-------3-------------------------------3------------|
C|--2-------------------------------0-------------0-2----------------2-|

D|-------3---------------2------------0---------------3-----------3----|
A|--3------3------3--------3------3-----3-------3-------3-----3-----3--|
F|----0------0------0--------0------2-----2-------0-------0-----0-----0|
C|---------------------------------------------------------------------|
G|-------------3-------3----------------------------3------------------|
C|------------------------------0-----------0-2-------------2----------|

D|----------2-------------0----------------3------------3--------------|
A|----3-------3-------3-----3--------3-------3------3-----3-----3------|
F|------0-------0-------2-----2--------0-------0------0-----0-----0----|
C|---------------------------------------------------------------------|
G|--3-----3------------------------------3--------------------3-----3--|
C|------------------2------------0-2--------------2--------------------|

D|--2------------0---------------3------|
A|----3------3-----3-------3-------3----|
F|------0------2-----2-------0-------0--|
C|--------------------------------------|
G|-----------------------------3--------|
C|---------0-----------0-2--------------|

Interlude: Guitar 1
D|---------------------------------------------------------------------|
A|---------------------------------------------------------------------|
F|---------------------------------------------------------------------|
C|------------------7-7-7-7-----5-5-5-5-----8-8-8-8---------------1----|
G|----------5-5-5-5---------------------6-6---------------3/4-x-x-1----|
C|--0-0-0-0-----------------6-6----------------------0-0--3/4-x-x-1----|
pm.................         ...                      ...      ....

Guitar 1:
D|---------------------------------------------------------|
A|---------------------------------------------------------|
F|------------------------------------------7/8\7----------|Play this 
C|-----------------7-7-7-7-----3-----5------x-x-x----------| 1 1/2 times
G|-0-0-0-0-5-5-5-5-------------1-----3------5/6\5----------|
C|-0-0-0-0-----------------0-0----0------------------0--3*-|
..................         ...   ...

Guitar 2:
D|---------------------------------------------------------|
A|---------------------------------------------------------|
F|---------------------------------------------------------|
C|-0~---------------------(0)--3-----5---------------------|
G|-0~---------------------(0)--1-----3------5/6\5----------|
C|-0~---------------------(0)------------------------0--3*-|

Then...
Guitar 1
D|-------------------------------------------------------------|
A|-------------------------------------------------------------|
F|---------------------------------------------7/8\7-----------|
C|------------------7-7-7-7-------3-----5------x-x-x-----------|
G|----------5-5-5-5---------------1-----3------5/6\5-----------|
C|--0-0-0-0------------------0-0-----------------------0----3*-|
pm.................          ...               

Guitar 2
D|-------------------------------------------------------------|
A|-------------------------------------------------------------|
F|--------------------------------7-----9----10/12\10----------|
C|------------------7-7-7-7-------x-----x-----x--x-x-----------|
G|--0-0-----5-5-5-5---------------5-----7-----8/10\-8----------|
C|--0-0-0-0------------------0-0-----------------------0----3*-|
pm.................          ...

(2:57)
Guitars 1 and 2
D|-------------------------------------------------------------|
A|--3~----------------3~------------3~-------------------------|
F|--2~----------------2~------------2~-------------7/8---------|
C|--0~----------------0~------------0~-------------x-x-------1-|
G|--0~----------------0~------------0~-------------5/6-------1-|
C|--0~----------------0~------------0~---------0-0------0-0--1-|
pm                                             ...      ...

D|----------------------------------------------------|
A|----------------------------------------------------|
F|----------------------------------------------------|
C|--0~-------0~--------(0)----------------------------|
G|--0~-------0~--------(0)------x\\\\\x\\\\\\---------|
C|--0~-------0~--------(0)------x\\\\\x\\\\\\---------|
                                 pick scr*pe

D|--------------------------------------------------------|
A|--------------------------------------------------------|
F|------7/8-----------------------------------------------|
C|------x-x-------1---------------------------------------|
G|------5/6-------1---0-0-4--3--0--6--3--0--4--3--0--1--3-|
C|--0-0------0-0--1---0-0-4--3--0--6--3--0--4--3--0--1--3-|
pm  ...      ...      ....................................

D|---------------------------------------------------------|
A|---------------------------------------------------------|
F|--------------------------------------------7/8----------|
C|--------------------------------------------x-x----------|
G|--0--4--3--0--6--3--0--4--3--0--1--3--0--0--5/6--------1-|
C|--0--4--3--0--6--3--0--4--3--0--1--3--0--0-------0--0--1-|
pm..........................................       .....

There we go, both guitars transcribed.
            
Submit corrections


        Fixation On The Darkness lessons Hard to play? Try these video lessons and learn fast Fixation On The Darkness lessons
        
↑ Back to top | Tablatures and chords for acoustic guitar and electric guitar, ukulele, drums are parodies/interpretations of the original songs. You may use it for private study, scholarship, research or language learning purposes only