» » »

Killswitch Engage - A Bid Farewell Tabs

Artists:  A B C D E F G H I J K L M N O P Q R S T U V W X Y Z # 

A Bid Farewell Tabs

(ver. 2) Click to play this song!
Killswitch Engage
 Rating:
4.2/5 (5 votes)

 A Bid Farewell lessons Tabs too difficult? Try these video lessons and learn fast
 
                (Intro)
----------------------------------------------------------------------------
                     A BID FAREWELL by Killswitch Engage
----------------------------------------------------------------------------

Tuning: C G C F A D

Recording sounds one whole step lower than written.

Plz rate
(w/light distortion)
|-----------5-|-----------5-|-----------8-|
|-------------|-------------|-------------|
|--7--8--7----|--7--8--7----|--7--8--7----|
|-------------|-------------|-------------|     4x
|-------------|-------------|-------------|
|-------------|-------------|-------------|
____________________________________________________________________________

(w/heavy distortion)
|----------------|----------------|---------------------|
|----------------|----------------|---------------------|
|----------------|----------------|---------------------|
|----------------|----------------|---------------------|     x4
|-0-0-0-0---0--0-|-0-0-0-0---0--0-|-0-0-0-0---0-0-0-0-3-|
|-0-0-0-0---0--0-|-0-0-0-0---0--0-|-0-0-0-0---0-0-0-0-3-|
____________________________________________________________________________

|------------------|------------------|--------------------------|
|------------------|------------------|--------------------------|
|------------------|------------------|--------------------------|
|------------------|------------------|--------------------------|     x2
|------------------|------------------|--------------------------|
|-0-0-0--1h2--0--0-|-0-0-0--1h2--0--0-|-0-0-0--1h2--0-0-0-0-2h3--|
  * * *       *  *   * * *       *  *   * * *       * * * * 
____________________________________________________________________________

|------------------|
|------------------|
|------------------|
|------------------|
|------------------|
|-0-0-0--1h2--0--0-|
  * * *       *  *
____________________________________________________________________________

|---------------|---------------|---------------------|
|---------------|---------------|---------------------|
|---------------|---------------|---------------------|
|---------------|---------------|---------------------|     x2
|-0-0-0-0--0--0-|-0-0-0-0--0--0-|-0-0-0-0---0-0-0-0-3-|
|-0-0-0-0--0--0-|-0-0-0-0--0--0-|-0-0-0-0---0-0-0-0-3-|
____________________________________________________________________________

|-----------------|-----------------|------------------------|
|-----------------|-----------------|------------------------|
|-------3/4---3/4-|-------3/4---3/4-|-------3/4---------4/5--|
|-------1/2---1/2-|-------1/2---1/2-|-------1/2---------2/3--|    x2
|-------1/2---1/2-|-------1/2---1/2-|-------1/2---------2/3--|
|-0-0-0-----0-----|-0-0-0-----0-----|-0-0-0-----0-0-0-0------|
____________________________________________________________________________

|-------------------------|------------|--------------------------|
|-------------------------|------------|--------------------------|
|-------------------------|------------|-------------5-----5------|
|-7-5-3-7-5-3-5-3-2-5-3-2-|-2---3--5-3-|-7-5-3-7-5-3---7-5---7-5--|
|-------------------------|------------|--------------------------|
|-------------------------|------------|--------------------------|

------------|
------------|
------------|
-2---3--5-3-|
------------|
------------|
____________________________________________________________________________

|--------------------------------------------|----------------------|
|--8pr(8)--6--8pr(8)--6--6pr(6)--5--6pr(6)-5-|-5~~-6--8-6~~~~~~~~~--|
|--------------------------------------------|----------------------|
|--------------------------------------------|----------------------|
|--------------------------------------------|----------------------|
|--------------------------------------------|----------------------|
   | 1 |       | 1 |      | 1 |     | 1 |

|------------------------------------------------|------------------------|
|--8pr(8)--6--8pr(8)--6--10pr(10)--8--10pr(10)-8-|-5~~-6--8-6~~~~~~~~~~~--|
|------------------------------------------------|------------------------|
|------------------------------------------------|------------------------|
|------------------------------------------------|------------------------|
|------------------------------------------------|------------------------|
   | 1 |      | 1 |      | 1 1/2 |    | 1 1/2 |
Alright so here when u see -pr- it's prebend then release and the number @ the 
bottom is how much you bend it. 
____________________________________________________________________________

|---------------|---------------|---------------------|
|---------------|---------------|---------------------|
|---------------|---------------|---------------------|
|---------------|---------------|---------------------|     x2
|-0-0-0-0--0--0-|-0-0-0-0--0--0-|-0-0-0-0---0-0-0-0-3-|
|-0-0-0-0--0--0-|-0-0-0-0--0--0-|-0-0-0-0---0-0-0-0-3-|
____________________________________________________________________________

|-----------------|-----------------|------------------------|
|-----------------|-----------------|------------------------|
|-------3/4---3/4-|-------3/4---3/4-|-------3/4---------4/5--|
|-------1/2---1/2-|-------1/2---1/2-|-------1/2---------2/3--|    x2
|-------1/2---1/2-|-------1/2---1/2-|-------1/2---------2/3--|
|-0-0-0-----0-----|-0-0-0-----0-----|-0-0-0-----0-0-0-0------|
____________________________________________________________________________

|-------------------------|------------------------|
|-------------------------|------------------------|
|-------------------------|------------------------|
|-------------------------|------------------------|
|-2-2-2-2-3-5-2-2-2-2-3-5-|-2-2-2-2-3-5-2----2-3-0-|
|-2-2-2-2-3-5-2-2-2-2-3-5-|-2-2-2-2-3-5-2----2-3-0-|
  * * * * * * * * * * * *   * * * * * * *    * * *
____________________________________________________________________________


|-------------------------|------------|--------------------------|
|-------------------------|------------|--------------------------|
|-------------------------|------------|-------------5-----5------|
|-7-5-3-7-5-3-5-3-2-5-3-2-|-2---3--5-3-|-7-5-3-7-5-3---7-5---7-5--|
|-------------------------|------------|--------------------------|
|-------------------------|------------|--------------------------|

------------|
------------|
------------|
-2---3--5-3-|
------------|
------------|
____________________________________________________________________________

|--------------------------------------------|----------------------|
|--8pr(8)--6--8pr(8)--6--6pr(6)--5--6pr(6)-5-|-5~~-6--8-6~~~~~~~~~--|
|--------------------------------------------|----------------------|
|--------------------------------------------|----------------------|
|--------------------------------------------|----------------------|
|--------------------------------------------|----------------------|
   | 1 |       | 1 |      | 1 |     | 1 |                                x2

|------------------------------------------------|------------------------|
|--8pr(8)--6--8pr(8)--6--10pr(10)--8--10pr(10)-8-|-5~~-6--8-6~~~~~~~~~~~--|
|------------------------------------------------|------------------------|
|------------------------------------------------|------------------------|
|------------------------------------------------|------------------------|
|------------------------------------------------|------------------------|
   | 1 |      | 1 |      | 1 1/2 |    | 1 1/2 |
____________________________________________________________________________

|-------------------------|
|-------------------------|
|-------------------------|
|-------------------------|     x3
|-------------------------|
|-0--0--0-0-0-0--0--0-0-0-|

|-------------------------|
|-------------------------|
|-------------------------|
|-------------------------|
|-----------------3-------|
|-0--0--0-0-0-3h5---5-3-0-|

____________________________________________________________________________

|---------------------|-----------------------|---------------------|
|---------------------|-----------------------|---------------------|
|---------------------|-----------------------|---------------------|
|---------------------|-----------------------|---------------------|
|---------------------|-----------------3h5-5-|---------------------|
|-0-0-x-x-x-0-0-x-x-x-|-0-0-x-x-x-3h5-5-------|-0-0-x-x-x-0-0-x-x-x-|
                                                                        x2
|-----------------------|
|-----------------------|
|-----------------------|
|-----------------------|
|---------------3-------|
|-0-0-x-x-x-3h5---5-3-0-|
____________________________________________________________________________

|-------------------------|-------------------------|
|-------------------------|-------------------------|
|-------------------------|-------------------------|
|-------------------------|-------------------------|
|-------------------------|-------------------------|
|-5-5-5-5-5-5-5-5-5-5-5-5-|-7-7-7-7-7-7-7-7-7-7-7-7-|
P.M................................................
|-------------------------|-------------------------------|
|-------------------------|-------------------------------|
|-------------------------|-------------------------------|
|-------------------------|-------------------------------|
|-------------------------|-------------------------------|
|-8-8-8-8-8-8-8-8-8-8-8-8-|-8-8-8-8-8-8-10-10-10-10-10-10-|
P.M......................................................
|-------------------------|-------------------------|
|-------------------------|-------------------------|
|-------------------------|-------------------------|
|-------------------------|-------------------------|
|-------------------------|-------------------------|
|-5-5-5-5-5-5-5-5-5-5-5-5-|-7-7-7-7-7-7-7-7-7-7-7-7-|
P.M................................................
|-------------------------|-------------------------------|
|-------------------------|-------------------------------|
|-------------------------|-------------------------------|
|-------------------------|-------------------------------|
|-------------------------|-------------------------------|
|-8-8-8-8-8-8-8-8-8-8-8-8-|-8-8-8-8-8-8-P\I\C\K\S\L\I\D\E-|
P.M....................................
____________________________________________________________________________

|------------|------------|------------|-------------|
|------------|------------|------------|-------------|
|------------|------------|------------|-------------|
|------------|------------|------------|-------------|     x2
|-5------5---|-7------7---|-8------8---|--10------10-|
|-5------5---|-7------7---|-8------8---|--10------10-|
____________________________________________________________________________

|-------------------------|------------|--------------------------|
|-------------------------|------------|--------------------------|
|-------------------------|------------|-------------5-----5------|
|-------------5-3-2-5-3-2-|-2---3--5-3-|-7-5-3-7-5-3---7-5---7-5--|
|-------------------------|------------|--------------------------|
|-------------------------|------------|--------------------------|

------------|
------------|
------------|
-2---3--5-3-|
------------|
------------|
____________________________________________________________________________

|-------------------------------|--------------------------|
|-------------------------------|--------------------------|
|-------------------------------|--------------------------|
|-------------------------------|--------------------------| x2
|-0-0-0-0-0-0-10-10-10-10-10-10-|-7-7-7-7-7-7-8-8-8-8-8-8--|
|-0-0-0-0-0-0-10-10-10-10-10-10-|-7-7-7-7-7-7-8-8-8-8-8-8--|
  . . . . . . .  .  .  .  .  .    . . . . . . . . . . . .
|-----|
|-----|
|-----|
|-----|
|--0--|
|--0--|

well thats it, please rate.
            
Submit corrections


        A Bid Farewell lessons Hard to play? Try these video lessons and learn fast A Bid Farewell lessons
        
↑ Back to top | Tablatures and chords for acoustic guitar and electric guitar, ukulele, drums are parodies/interpretations of the original songs. You may use it for private study, scholarship, research or language learning purposes only