Home » K » Kilians »

Kilians - Fool To Fool Tabs

Artists:  A B C D E F G H I J K L M N O P Q R S T U V W X Y Z # 

Fool To Fool Tabs

(ver. 1) Click to play this song!
Kilians
The Kilians - Fool to Fool
--------------------------

Intro:

E---------------------------------------------------|
H--8-6--------------------------------------6-------|
G------7-----------------5-7--7--8--8--7--7---------|
D--------8-10-8-5-5-8----8------8-------------------|
A---------------------------------------------------|
E---------------------------------------------------|


E---------5-6-5--------------------------------------------------|
H--8-6-8-------8-5-----------------------------------------------|
G---------------------5-------7---7-8---8--7-5-------------------|
D-----------------------5-7-8--8------8----------8-7-4-5---------|
A----------------------------------------------------------------|
E----------------------------------------------------------------|

Vers 1:

g - C - D# - F - A# - D 2x

D# - F - A# - C

D# - F - A#  - D

E---------------------------------------------------|
H--8-6--------------------------------------6-------|
G------7-----------------5-7--7--8--8--7--7---------|
D--------8-10-8-5-5-8----8------8-------------------|
A---------------------------------------------------|
E---------------------------------------------------|


E---------5-6-5--------------------------------------------------|
H--8-6-8-------8-5-----------------------------------------------|
G---------------------5-------7---7-8---8--7-5-------------------|
D-----------------------5-7-8--8------8----------8-7-4-5---------|
A----------------------------------------------------------------|
E----------------------------------------------------------------|

Vers 2:

g - C - D# - F - A# - D 2x

Chorus:

D# - D - g - C  4x

E---------------------------------------------------|
H--8-6--------------------------------------6-------|
G------7-----------------5-7--7--8--8--7--7---------|
D--------8-10-8-5-5-8----8------8-------------------|
A---------------------------------------------------|
E---------------------------------------------------|


E---------5-6-5--------------------------------------------------|
H--8-6-8-------8-5-----------------------------------------------|
G---------------------5-------7---7-8---8--7-5-------------------|
D-----------------------5-7-8--8------8----------8-7-4-5---------|
A----------------------------------------------------------------|
E----------------------------------------------------------------|

Vers 3:

g - C - D# - F - A# - D 2x

Chorus:

D# - D - g - C  9x

D#
            
Submit corrections

↑ Back to top | Tablatures and chords for acoustic guitar and electric guitar, ukulele, drums are parodies/interpretations of the original songs. You may use it for private study, scholarship, research or language learning purposes only