Home » K » Kiko Machine »

Kiko Machine - Takeshi Tabs

Artists:  A B C D E F G H I J K L M N O P Q R S T U V W X Y Z # 

Takeshi Tabs

(ver. 2) Click to play this song!
Kiko Machine
Album:Kiko Machine
              09229015724(Sun Cell)

Gtr.Legends:
~ - LET IT RING
h - HAMMER-ON
. - PALM MUTING

Gtr.Tuning:Standard(Normal)

Intro:
e|----------------------|
B|----------------------|
G|----------------------|
D|----4444------33333---|
A|----4444--00--33333---|
E|-0--2222--00--11111---|

Verse 1:
Tuloy pa rin...    Na naryan ako..
e|-------------    ---------------|
B|------2222---    ---------------|
G|-1111-1111---    ---------------|
D|-2222-2222---    --4444--3333---|
A|-2222--------    --4444--3333---|
E|-------------    --2222--1111---|

Kahit pa sa...     Sasabihing wala ka..
e|-------------    ---------------|
B|------2222---    ---------------|
G|-1111-1111---    ---------------|
D|-2222-2222---    --4444--3333---|
A|-2222--------    --4444--3333---|
E|-------------    --2222--1111---|

Pre-Chorus 2:
Kahit anong manyari,tuloy pa rin..
e|---------------------------|
B|---------------------------|
G|-44444--22222--44444--2~---|
D|-44444--22222--44444--2~---|
A|-22222--00000--22222--0~---|
E|---------------------------|

Chorus 1:
Kahit na...

Kay hirap mo namang ligawan...     
Gtr.1:
e|-------------------------------|
B|-------------------------------|
G|-------------------------------|
D|-22222--44444--222222--44444---|
A|-22222--44444--222222--44444---|  
E|-00000--22222--000000--22222---|  

Gtr.2:
e|-------12~--12----------------|
B|-9-10----------10-9-10-9------|
G|-------------------------9~---|  
D|------------------------------|
A|------------------------------|
E|------------------------------|

Takeshi,castle...
e|---------------|
B|---------------|
G|---------------|
D|-7777--99999---|
A|-7777--99999---|
E|-5555--77777---|

Verse 2:Same as Verse 1
Kahit na,di mo sinasagot...

Pre-Chorus 2:Same as Pre-Chorus 1
Kahit na magmukang tanga...

Repeat Chorus 1:

Bridge prt 1(Gtr.Solo):
Gtr.1:Play the Verse 1
Gtr.2:
e|----------------------------------------------------------------------|
B|-10-9-7-0~--10-9-7-0~--------------10-9-7-0~--10-9-7-0~---------------|
G|----------------------------------------------------------------------|
D|-----------------------5h7-5-7-9~------------------------5h7-7-9------|
A|-----------------------------------------------------------------7~---|
E|----------------------------------------------------------------------|

e|---------------------------------------------------------|
B|-10-9-7-0~--10-9-7-0~--------------10-9-7-0~-------------|
G|----------------------------------------------5-7-9-9~---|
D|-----------------------5h7-5-7-9~------------------------|
A|---------------------------------------------------------|
E|---------------------------------------------------------|
                                                . . .  

Bridge prt.2:
Kahit na mag-mukang tanga,tuloy pa rin...
e|------------------------------------|
B|------------------------------------|
G|-44444--22222--44444--22222222222---|
D|-44444--22222--44444--22222222222---|
A|-22222--00000--22222--00000000000---|
E|------------------------------------|

Kahit na
Ang hirap mo namang ligawan...
Gtr.1:
e|------------------------------|
B|------------------------------|
G|------------------------------|
D|-22222--44444--22222--44444---|
A|-22222--44444--22222--44444---|
E|-00000--22222--00000--22222---|

Gtr.2:
e|-------12~--12----------------|
B|-9-10----------10-9-10-9------|
G|-------------------------9~---|
D|------------------------------|
A|------------------------------|
E|------------------------------|

Takeshi,castle...
e|-----------------------------------------------|
B|-----------------------------------------------|
G|-----------------------------------------------|
D|-99999--111111---7h8--6h7--5h6--4h5--4h5--4~---|
A|-99999--111111---------------------------------|
E|-77777--999999---------------------------------|

Chorus 2:Repeat Chorus 1
Ang bolang kanyon...

Outro:
Kay hirap mong...
e|---------------------------------------|
B|---------------------------------------|
G|---------------------------------------| 2x
D|-22222--77777--2222-----4444----3333---|
A|-22222--77777--2222-----4444-00-3333---|
E|-00000--55555--0000--0--2222-00-1111---|

Kay hirap
Last Chords:
e|---------------|
B|---------------|
G|---------------|
D|-4444-----3~---|
A|-4444-00--3~---|
E|-2222-00--1~---|

End...

Takeshi Lyrics

Verse 1:
Tuloy pa rin ang pagsuyo sa iyo kahit na 
di mo napapansin na naryan ako
Kahit pa sa telepono umiiba ang 
boses mo at sasabihing wala ka

Pre-Chorus:
Kahit na anong mangyari
Tuloy pa rin

Kahit na

Chorus 1:
Kayhirap mo namang ligawan
Ang daming pagsubok na dapat daanan   
Daig ko pa ang sumali sa takeshi castle

Verse 2:
Kahit na di mo sinasagot ang lahat ng 
sulat ko’y basura sa iyo
Lalo na sa mga kaibigan mo naging 
libangan na ipahiya ako

Pre-Chorus 2:
Kahit na magmukang tanga
Tuloy pa rin

Repeat Chorus 1

Chorus 2:
Ang bolang kanyon handa kong labanan
Kahit alambre handa kong lakaran 
Para lang man*lo sa iyong takeshi'S castle

Kayhirap mong (Kay hirap)
            
Submit corrections

↑ Back to top | Tablatures and chords for acoustic guitar and electric guitar, ukulele, drums are parodies/interpretations of the original songs. You may use it for private study, scholarship, research or language learning purposes only