» » »

Kid Rock - Only God Knows Why Bass

Artists:  A B C D E F G H I J K L M N O P Q R S T U V W X Y Z # 

Only God Knows Why Bass

(ver. 2) Click to play this song!
Kid Rock
 Rating:
4/5 (4 votes)

 Only God Knows Why lessons Tabs too difficult? Try these video lessons and learn fast
 
                ONLY GOD KNOWS WHY - KID ROCK

GOOD TO HEAR, BUT BORING TO PLAY :)



INTRO
  1 + 2 + 3 + 4 +  1 + 2 + 3 + 4 +  1 + 2 + 3 + 4 +  1 + 2 + 3 + 4 +
G|----------------|----------------|----------------|----------------|
D|----------------|----------------|----------------|----------------|
A|----------------|2---------------|0---------------|----------------|
E|0---------------|----------------|----------------|0---------------|


VERSE

  1 + 2 + 3 + 4 +  1 + 2 + 3 + 4 +  1 + 2 + 3 + 4 +  1 + 2 + 3 + 4 +
G|----------------|----------------|----------------|----------------|
D|----------------|----------------|----------------|----------------|
A|----------------|2---------------|0---------------|----------------|
E|0---------------|----------------|----------------|0---------------|

  1 + 2 + 3 + 4 +  1 + 2 + 3 + 4 +  1 + 2 + 3 + 4 +  1 + 2 + 3 + 4 +
G|----------------|----------------|----------------|----------------|
D|----------------|----------------|----------------|----------------|
A|----------------|2---------------|0---------------|----------------|
E|0---------------|----------------|----------------|0---------------|


CHORUS

  1 + 2 + 3a+ 4 +  1 + 2 + 3 + 4 +  1 + 2 + 3 + 4 +  1 + 2 + 3 + 4 +
G|----------------|----------------|----------------|----------------|
D|----------------|----------------|----------------|----------------|
A|----------------|2-----2--22-----|0-----0--00-----|----------------|
E|0-----0--00-----|----------------|----------------|0-----0--00-----|

  1 + 2 + 3a+ 4 +  1 + 2 + 3 + 4 +  1 + 2 + 3 + 4 +  1 + 2 + 3 + 4 +
G|----------------|----------------|----------------|----------------|
D|----------------|----------------|----------------|----------------|
A|----------------|2-----2--22-----|0-----0--00-----|----------------|
E|0-----0--00-----|----------------|----------------|0-----0--00-----|

  1 + 2 + 3a+ 4 +  1 + 2 + 3 + 4 +  1 + 2 + 3 + 4 +  1 + 2 + 3 + 4 +
G|----------------|----------------|----------------|----------------|
D|----------------|----------------|----------------|----------------|
A|----------------|2-----2--22-----|0-----0--00-----|----------------|
E|0-----0--00-----|----------------|----------------|0-----0--00-----|


  1 + 2 + 3a+ 4 +  1 + 2 + 3 + 4 +  1 + 2 + 3 + 4 +  1 + 2 + 3 + 4 +
G|----------------|----------------|----------------|----------------|
D|----------------|----------------|----------------|----------------|
A|----------------|5-----5--55-----|0-----0--00-----|7-----7-77777777|
E|0-----0--00-----|----------------|----------------|----------------|


  1 + 2 + 3 + 4 +  1 + 2 + 3 + 4 +  1 + 2 + 3 + 4 +  1 + 2 + 3 + 4 +
G|----------------|----------------|----------------|----------------|
D|----------------|----------------|----------------|----------------|
A|4----4----------|----------------|4----2----------|----------------|
E|----------------|2----2----------|----------------|2----5sustain---|

  1 + 2 + 3 + 4 +  
G|----------------|
D|----------------|
A|----------------|
E|----------------|


SOLO

  1 + 2 + 3 + 4 +  1 + 2 + 3 + 4 +  1 + 2 + 3 + 4 +  1 + 2 + 3 + 4 +
G|----------------|----------------|----------------|----------------|
D|----------------|----------------|----------------|----------------|
A|----------------|2-----2--22-----|5-----0--00-----|----------------|
E|0-----0--00-----|----------------|----------------|0-----0--00-----|

  1 + 2 + 3 + 4 +  1 + 2 + 3 + 4 +  1 + 2 + 3 + 4 +  1 + 2 + 3 + 4 +
G|----------------|----------------|----------------|----------------|
D|----------------|----------------|----------------|----------------|
A|----------------|2-----2--22-----|5-----0--00-----|---------77-----|
E|0-----0--00-----|----------------|----------------|0-----0---------|

  1 + 2 + 3 + 4 +  1 + 2 + 3 + 4 +  1 + 2 + 3 + 4 +  1 + 2 + 3 + 4 +
G|----------------|----------------|----------------|----------------|
D|----------------|----------------|----------------|----------------|
A|4----4----------|----------------|4----2----------|----------------|
E|----------------|2----2----------|----------------|2----5sustain---|

  1 + 2 + 3 + 4 +  
G|----------------|
D|----------------|
A|----------------|
E|----------------|


REPEAT VERSE & CHORUS
            
Submit corrections


        Only God Knows Why lessons Hard to play? Try these video lessons and learn fast Only God Knows Why lessons
        
↑ Back to top | Tablatures and chords for acoustic guitar and electric guitar, ukulele, drums are parodies/interpretations of the original songs. You may use it for private study, scholarship, research or language learning purposes only