» » »

Kid Dynamite - Pause Tabs

Artists:  A B C D E F G H I J K L M N O P Q R S T U V W X Y Z # 

Pause Tabs

(ver. 1) Click to play this song!
Kid Dynamite
 Rating:
4/5 (4 votes)
                -------------------------------------------------------------------------------
-------------------------------------------------------------------------------


Intro/Verse
e|---------------------------------------------------------------------------|
B|---------------------------------------------------------------------------|
G|-----4--------5----------7-------------------------------------------------|
D|--2--4--4--5--5-Slide to-7-------------------------------------------------|
A|--0--2--4--5--3----------5-------------------------------------------------|
E|--0-----2--3---------------------------------------------------------------|

Chorus
e|---------------------------------------------------------------------------|
B|---------------------------------------------------------------------------|
G|---------------------------------------------------------------------------|
D|--7--9--5---------------------12-------------------------------------------|
A|--7--9--5--4 times and end on-12-------------------------------------------|
E|--5--7--3---------------------10-------------------------------------------|

End
e|---------------------------------------------------------------------------|
B|---------------------------------------------------------------------------|
G|--9------------------------------------------------------------------------|
D|--9--9--12--7--6--4--2-----------------------------------------------------|
A|--7--9--12--7--6--4--2-----------------------------------------------------|
E|-----7--10--5--4--2--0-----------------------------------------------------|
            
Submit corrections

↑ Back to top | Tablatures and chords for acoustic guitar and electric guitar, ukulele, drums are parodies/interpretations of the original songs. You may use it for private study, scholarship, research or language learning purposes only