» » »

Khalid - Keep Me Tabs

Artists:  A B C D E F G H I J K L M N O P Q R S T U V W X Y Z # 

Keep Me Tabs

(ver. 1) Click to play this song!
Khalid
 Rating:
4.3/5 (21 vote)

 Keep Me lessons Tabs too difficult? Try these video lessons and learn fast
 
                [Intro]
e|---------x---------x----------x-|
B|----6----x----8----x----10----x-|
G|----7----x----7----x----10----x-|
D|----7----x----9----x----10----x-|
A|---------x---------x----------x-|
E|---------x---------x----------x-|   

e|--------------------|--------------------------------|
B|------6-6----6-6----|-----8-8------10----11p10-------|
G|------7-7----7-5----|-----7-7------10----------12----|
D|--------------------|--------------------------------|
E|--------------------|-----7--------10----------------|
E|--------------------|--------------------------------| 

e|--------------------|------------------------------------|
B|------6-6----6-6----|-----8-8------10----10h11p10--10----|
G|------7-7----7-5----|-----7-7------10--------------------|
D|--------------------|------------------------------------|
E|--------------------|-----7--------10--------------------|
E|--------------------|------------------------------------|

            
Submit corrections


        Keep Me lessons Hard to play? Try these video lessons and learn fast Keep Me lessons
        
↑ Back to top | Tablatures and chords for acoustic guitar and electric guitar, ukulele, drums are parodies/interpretations of the original songs. You may use it for private study, scholarship, research or language learning purposes only