» » »

Kevin Fowler - The Lord Loves The Drinkin’ Man Tabs

Artists:  A B C D E F G H I J K L M N O P Q R S T U V W X Y Z # 

The Lord Loves The Drinkin’ Man Tabs

(ver. 1) Click to play this song!
Kevin Fowler
 Rating:
4/5 (4 votes)

 The Lord Loves The Drinkin’ Man lessons Tabs too difficult? Try these video lessons and learn fast
 
                The Lord Loves a Drinking Man


Solo 1


e---------------------------------------------------------------
B---------------------------------------------------------------
G---------------------------------------------------------------
D---------------------------------------------------------------
A-----------0-0--1-1--1-1----1-1-1-1/3--3-3--3-3—-3-3--b-r------
E-1-1--3-3--------------------------------------------3(4)3-1---

e---------------------------------------------------------------
B---------------------------------------------------------------
G----------b-----------------------------------------------------
D-3-----3-5(6)-5-3----------------------------------------------
A---3h5--------------5--3-5--b-r--------------------------------
E---------------------------3(4)3-1-----------------------------


Solo 2

This one has some fun double-stops and bends.  I couldn’t figure out the little run 
starting at the spot marked ***, but what I’ve tabbed is close.  If someone wants 
to add their interpretation, feel free.


e-[F]---------------------------------------|-[Bb]------------------***----------------|
B---------------------6-6---6-6-------------|------------------------------------------|
G---------------------5-5---7-5--5----5-5---|-------3---5-3------------------3-------5-|
D-----------3-5-3-5/7-----7------7(8)-7-5-3-|-----3---3-3-3----------------------5/7---|
A-3/5-3-4-5-----------------------b---------|-3/5-----------3(4)3-1---0-1-2/3--3-------|
E-------------------------------------------|----------------b-r-----------------------|

e--[C]--6------8-------------------------1-1--1----1------------------------|
B------------------x--x--x--x--------1---3-1--------------------------------|
G--7(8)---8(9)----(9)(9)(9)(9)8-5------2-----—2(3)(3)2----------------------|
D---bh-----bh-----pb---------r-----------------b----r---5-3------3----------|
A-----------------------------------------------------------—3h5----b-r-----|
E------------------------------------------------------------------3(4)3-1--|
            
Submit corrections


        The Lord Loves The Drinkin’ Man lessons Hard to play? Try these video lessons and learn fast The Lord Loves The Drinkin’ Man lessons
        
↑ Back to top | Tablatures and chords for acoustic guitar and electric guitar, ukulele, drums are parodies/interpretations of the original songs. You may use it for private study, scholarship, research or language learning purposes only