» » »

Kevin Fowler - Speak Of The Devil Tabs

Artists:  A B C D E F G H I J K L M N O P Q R S T U V W X Y Z # 

Speak Of The Devil Tabs

(ver. 1) Click to play this song!
Kevin Fowler
 Rating:
4/5 (4 votes)

 Speak Of The Devil lessons Tabs too difficult? Try these video lessons and learn fast
 
                Kevin Fowler
Speak Of The Devil



e--------------------------------------------------------
B--------------------------------------------------------
G--------------------------------------------------------
D------------------4-------------------4-----------------
A--2-2-2h4p2-2-4/6-----4-4-4h6p4-4-6/7-------------------
E--------------------------------------------------------

e--------------------------------------------------------
B--------------------------------------------------------
G--------------------------------------------------------
D------------------4-4-2-2-1-1---------------------4-----
A--7-7-6-6-4-4-2-2-------------4-4-2-2-2h4p2-2-4/6-------
E--------------------------------------------------------

e--------------------------------------------------------
B------------------------------------------------------4-
G------------------------------------------------------4-
D------------------4------------------4-4-2-2-1-1------4-
A--4-4-4h6p4-4-6/7----7-7-6-6-4-4-2-2-------------4-4--2-
E--------------------------------------------------------




Song changes key at the end from "B" to "C#" so here's the adjustment:



e--------------------------------------------------------
B--------------------------------------------------------
G--------------------------------------------------------
D------------------6-------------------6-----------------
A--4-4-4h6p4-4-6/8-----6-6-6h8p6-6-8/9-------------------
E--------------------------------------------------------


e--------------------------------------------------------
B--------------------------------------------------------
G--------------------------------------------------------
D------------------6-6-4-4-3-3---------------------6-----
A--9-9-8-8-6-6-4-4-------------6-6-4-4-4h6p4-4-6/8-------
E--------------------------------------------------------


e--------------------------------------------------------
B------------------------------------------------------6-
G------------------------------------------------------6-
D------------------6------------------6-6-4-4-3-3------6-
A--6-6-6h8p6-6-8/9----9-9-8-8-6-6-4-4-------------6-6--4-
E--------------------------------------------------------

            
Submit corrections


        Speak Of The Devil lessons Hard to play? Try these video lessons and learn fast Speak Of The Devil lessons
        
↑ Back to top | Tablatures and chords for acoustic guitar and electric guitar, ukulele, drums are parodies/interpretations of the original songs. You may use it for private study, scholarship, research or language learning purposes only