» » »

Kevin Fowler - I Think I'll Just Stay Here And Drink ( 1st Solo ) Tabs

Artists:  A B C D E F G H I J K L M N O P Q R S T U V W X Y Z # 

I Think I'll Just Stay Here And Drink ( 1st Solo ) Tabs

(ver. 1) Click to play this song!
Kevin Fowler
 Rating:
4/5 (4 votes)

 I Think I'll Just Stay Here And Drink ( 1st Solo ) lessons Tabs too difficult? Try these video lessons and learn fast
 
                "Kevin Fowler

I Think I'll Just Stay Here and Drink


1st Solo

   A#                                D#

E--6-4-------------------------------6-6~---9b---------------13--9h10-9h10-6---6---------
B------6-5p4------------------------x------------------11--------------------9-----------
G------------6-3-6---8---6---3-1--x----------------/12----12-----------------------------
D------------------x---x---x-------------------------------------------------------------
A----------------------------------------------------------------------------------------
E----------------------------------------------------------------------------------------

    A#                                                     E#
                                                           
E-6-9b-12b-9br-6-------------------------------------------------------------------------
B----------------9-----9-----------------------------------9------9------9---------------
G------------------8bh---r8-6~------------------8p6---8/10---8/10---8/10---8-6-----------
D------------------------------8-8p6-------b6r------8---------------------------8p6-8~---
A------------------------------------8-6-4-----------------------------------------------
E----------------------------------------------------------------------------------------

                                  A#

E-----11-9h10-------------------------------------------6---------------------------------
B-------------11p9\6-9--------------------------------6---9~~-----------------------------
G-/12------------------8-6h7------6/7--6/7~--------/8-------------------------------------
D----------------------------8p6--5/6--5/6~-----------------------------------------------
A---------------------------------7/8--7/8~-----------------------------------------------
E-----------------------------------------------------------------------------------------
"            
Submit corrections


        I Think I'll Just Stay Here And Drink ( 1st Solo ) lessons Hard to play? Try these video lessons and learn fast I Think I'll Just Stay Here And Drink ( 1st Solo ) lessons
        
↑ Back to top | Tablatures and chords for acoustic guitar and electric guitar, ukulele, drums are parodies/interpretations of the original songs. You may use it for private study, scholarship, research or language learning purposes only