Home » K » Kesha »

Kesha - Praying Tabs

Artists:  A B C D E F G H I J K L M N O P Q R S T U V W X Y Z # 

Praying Tabs

(ver. 1) Click to play this song!
Kesha
[Verse 1]
e|-----------------|---------------------|-----------------|---------------------------|
B|-----------------|-------1-------------|-----------------|-------1-------------1-----|
G|-----------------|-0-2-3---0-3---3-5-7-|-3-3-3-3-2-0-----|-0-2-3---0-------0-3---3-0-|
D|-5-5-5-3-3-0-0-0-|-------------3-------|-------------3-3-|-----------3-3-3-----------|
A|-----------------|---------------------|-----------------|---------------------------|
E|-----------------|---------------------|-----------------|---------------------------|
Well, you almost had me fooled
Told me that I was nothing without you
Oh, but after everything you've done
I can thank you for how strong I have become

e|-----------------------|---------------------|---------------------|-------------------------|
B|-----------------------|-----------------1-1-|-----------1-3-1-----|-----------------1-1-----|
G|-0-3-3-0-3-3-0-3-3-0-3-|-3-3-0-3-3-0-3-3-----|-3-3-0-3-3-------3-3-|-3-3-0-3-3-0-3-3-----3-0-|
D|-----------------------|---------------------|---------------------|-------------------------|
A|-----------------------|---------------------|---------------------|-------------------------|
E|-----------------------|---------------------|---------------------|-------------------------|
'Cause you brought the flames and you put me through hell
I had to learn how to fight for myself
And we both know all the truth I could tell
I'll just say this is I wish you farewell

[Chorus 1]
e|-----------------------|-------------------------|-------------|-------------------|
B|-----------3-1---3-1---|-----------3-1-----3-1---|-3-3-----1-3-|-3-1-------3-1-----|
G|-0-3-0-3-0-----3-----3-|-0-3-0-3-0-----3-3-----3-|-----0-3-----|-----3-2-0-----3-3-|
D|-----------------------|-------------------------|-------------|-------------------|
A|-----------------------|-------------------------|-------------|-------------------|
E|-----------------------|-------------------------|-------------|-------------------|
I hope you're somewhere prayin’, prayin'
I hope your soul is changin', changin'
I hope you find your peace
Falling on your knees, prayin'

[Verse 2]
e|-------------|---------------------------|---------------|---3-5-6-8-3-----5---5-8-10-|
B|-------------|-------1-------1-3-1-------|-1-3-4-3-1---1-|-3-----------6-6---6--------|
G|-------------|-0-2-3---0-0-3-------3-0-3-|-----------3---|----------------------------|
D|-5-5-3-3-0-0-|---------------------------|---------------|----------------------------|
A|-------------|---------------------------|---------------|----------------------------|
E|-------------|---------------------------|---------------|----------------------------|
I'm proud of who I am
No more monsters, I can breathe again
And you said that I was done
Well, you were wrong and now the best is yet to come

e|---10-10-11-10-8-6-6-8-10-|-3-3-5-6-8-3-6-6-6---6-8-10--8-6-8-10-|
B|-3------------------------|-------------------6------------------|
G|--------------------------|--------------------------------------|
D|--------------------------|--------------------------------------|
A|--------------------------|--------------------------------------|
E|--------------------------|--------------------------------------|
'Cause I can make it on my own
And I don't need you, I found a strength I’ve never known

e|-10-10-11-10-8-6-6-6-3-6-8-10-8-|-3-5-6-8-6-6-6-3-6-8-10-8-|
B|--------------------------------|--------------------------|
G|--------------------------------|--------------------------|
D|--------------------------------|--------------------------|
A|--------------------------------|--------------------------|
E|--------------------------------|--------------------------|
I’ve been thrown out, I've veen burned, oh-oh
When I’m finished, they won't even know your name

e|-6-6-3-6-6-3-6-6-3-6-|-6-6-3-6-6-3-6-6-8-8-|-6-6-3-6-6-8-10-8-6-6-|-6-6-3-6-6-3-6-6-8-8-6-3-|
B|---------------------|---------------------|----------------------|-------------------------|
G|---------------------|---------------------|----------------------|-------------------------|
D|---------------------|---------------------|----------------------|-------------------------|
A|---------------------|---------------------|----------------------|-------------------------|
E|---------------------|---------------------|----------------------|-------------------------|
You brought the flames and you put me through hell
I had to learn how to fight for myself
And we both know all the truth I could tell
I'll just say this is I wish you farewell

[Chorus 2]
e|---6---6---10-8-6-10-8-6-|---6---6---10-8-6-6-10-8-6-|-10-10---6-8-10-|-10-10---6-8-10-|
B|-8---8---8---------------|-8---8---8-----------------|-------8--------|-------8--------|
G|-------------------------|---------------------------|----------------|----------------|
D|-------------------------|---------------------------|----------------|----------------|
A|-------------------------|---------------------------|----------------|----------------|
E|-------------------------|---------------------------|----------------|----------------|
I hope you're somewhere prayin’, prayin'
I hope your soul is changin', changin'
I hope you find your peace
Falling on your knees, prayin'

[Bride]
e|-6-11-10-10-8-6-6---6-6-6-8-10-|-11-10-10-8-6--6-6-3-6-6---|
B|------------------8------------|-------------------------6-|
G|-------------------------------|---------------------------|
D|-------------------------------|---------------------------|
A|-------------------------------|---------------------------|
E|-------------------------------|---------------------------|
Oh, sometimes I pray for you at night
Someday, maybe you'll see the light

e|-----6---6---6-6-6-6---6-6-8-10-|-6-6----------3-5-8-6-|
B|-6-8---8---6---------8----------|-----6--6-6-6---------|
G|--------------------------------|----------------------|
D|--------------------------------|----------------------|
A|--------------------------------|----------------------|
E|--------------------------------|----------------------|
Oh, some say, in life, you're gonna get what you give
But some things only God can forgive

[Chorus 3]
e|---6---6---10-8-6-10-8-6-|---6---6---10-8-6-6-10-8-6-|-10-10---6-8-10-|-10-10---6-8-10-|
B|-8---8---8---------------|-8---8---8-----------------|-------8--------|-------8--------|
G|-------------------------|---------------------------|----------------|----------------|
D|-------------------------|---------------------------|----------------|----------------|
A|-------------------------|---------------------------|----------------|----------------|
E|-------------------------|---------------------------|----------------|----------------|
I hope you're somewhere prayin’, prayin'
I hope your soul is changin', changin'
I hope you find your peace
Falling on your knees, prayin'            
Submit corrections

↑ Back to top | Tablatures and chords for acoustic guitar and electric guitar, ukulele, drums are parodies/interpretations of the original songs. You may use it for private study, scholarship, research or language learning purposes only