Home » K » Kesha »

Kesha - Godzilla Tabs

Artists:  A B C D E F G H I J K L M N O P Q R S T U V W X Y Z # 

Godzilla Tabs

(ver. 1) Click to play this song!
Kesha


[Intro]

e|------------|------------|------------|------------|
B|--3-0---3-3-|--0-0---0-0-|--3-0-----3-|--0-0-0-----|
G|--0-0---2-2-|--0-0---0-0-|--0-0---2-2-|--0-0-0-----|
D|------------|------------|------0-0---|------------|
A|------------|------------|3-----------|------------|
E|3-----2-----|0-----0-----|------------|3-----------|

[Verse]

e|------------|------------|------------|------------|
B|--3-3---3-3-|--0-0---0-0-|--3-3---3-3-|--0-0---0-0-|
G|--0-0---2-2-|--0-0---0-0-|--0-0---2-2-|--0-0---0-0-|
D|------------|------------|------0-----|------------|
A|------------|------------|3-----------|------------|
E|3-----2-----|0-----0-----|------------|3-----3-----|

e|------------|------------|------------|------------|
B|--3-3---3-3-|--0-0---0-0-|--3-3---3-3-|--3-3---1-1-|
G|--0-0---2-2-|--0-0---0-0-|--0-0---0-0-|--2-2---0-0-|
D|------------|------------|------------|0-----0-----|
A|------------|------------|3-----3-----|------------|
E|3-----2-----|0-----0-----|------------|------------|

e|------------|------------|--0-0---0-0-|------------|
B|--0-0---0-0-|--0-0---0-0-|--1-1---1-1-|--4-4-4-----|
G|--0-0---0-0-|--0-0---0-0-|--0-0---0-0-|--5-5-5-----|
D|2-----2-----|------------|--2-2---2-2-|--5-5-5-----|
A|------------|2-----2-----|3-----3-----|3-----------|
E|------------|------------|------------|------------|

e|------------|------------|------------|------------|
B|--3-3---3-3-|--0-0---0-0-|--3-3---3-3-|--0-0---0-0-|
G|--0-0---2-2-|--0-0---0-0-|--0-0---2-2-|--0-0---0-0-|
D|------------|------------|------0-----|------------|
A|------------|------------|3-----------|------------|
E|3-----2-----|0-----0-----|------------|3-----3-----|

[Break]

e|------------|------------|------------|------------|------------|------------|
B|--1-1---0-0-|--0-0---0-0-|--1-1---0-0-|--0-0---0-0-|--3-3---3-3-|--3-3---3-3-|
G|--0-0---0-0-|--0-0---0-0-|--0-0---0-0-|--0-0---0-0-|--2-2---2-2-|--2-2---2-2-|
D|------1-----|------------|------1-----|------------|0-----------|------------|
A|3-----------|------------|3-----------|------------|------3-----|2-----0-----|
E|------------|3-----3-----|------------|3-----3-----|------------|------------|

[Verse]

e|------------|------------|------------|------------|
B|--3-3---3-3-|--0-0---0-0-|--3-3---3-3-|--0-0---0-0-|
G|--0-0---2-2-|--0-0---0-0-|--0-0---2-2-|--0-0---0-0-|
D|------------|------------|------0-----|------------|
A|------------|------------|3-----------|------------|
E|3-----2-----|0-----0-----|------------|3-----3-----|

e|------------|------------|------------|------------|
B|--3-3---3-3-|--0-0---0-0-|--3-3---3-3-|--3-3---1-1-|
G|--0-0---2-2-|--0-0---0-0-|--0-0---0-0-|--2-2---0-0-|
D|------------|------------|------------|0-----0-----|
A|------------|------------|3-----3-----|------------|
E|3-----2-----|0-----0-----|------------|------------|

e|------------|------------|0-----------|------------|
B|--0-0---0-0-|--0-0---0-0-|1-----------|4-----------|
G|--0-0---0-0-|--0-0---0-0-|0-----------|5-----------|
D|2-----2-----|------------|2-----------|5-----------|
A|------------|2-----2-----|3-----------|3-----------|
E|------------|------------|------------|------------|

e|------------|------------|------------|------------|
B|--3-3---3-3-|--0-0---0-0-|--3-3---3-3-|--0-0---0-0-|
G|--0-0---2-2-|--0-0---0-0-|--0-0---2-2-|--0-0---0-0-|
D|------------|------------|------0-----|------------|
A|------------|------------|3-----------|------------|
E|3-----2-----|0-----0-----|------------|3-----3-----|

[Break]

e|------------|------------|------------|------------|------------|------------|
B|--1-1---0-0-|--0-0---0-0-|--1-1---0-0-|--0-0---0-0-|--3-3---3-3-|--3-3-------|
G|--0-0---0-0-|--0-0---0-0-|--0-0---0-0-|--0-0---0-0-|--2-2---2-2-|--2-2-------|
D|------1-----|------------|------1-----|------------|0-----------|------------|
A|3-----------|------------|3-----------|------------|------3-----|2-------0-2-|
E|------------|3-----3-----|------------|3-----3-----|------------|------3-----|

[Bridge]

e|0-0-0-0-0-0-|0-0-0-------|0-0-0-0-0-0-|0-0-0-0-0-0-|
B|1-1-1-1-1-1-|3-3-3-0-0-0-|1-1-1-1-1-1-|1-1-1-1-1-1-|
G|0-0-0-0-0-0-|2-2-2-0-0-0-|0-0-0-0-0-0-|0-0-0-0-0-0-|
D|2-2-2-2-2-2-|0-0-0-0-0-0-|2-2-2-2-2-2-|2-2-2-2-2-2-|
A|3-3-3-3-3-3-|------2-2-2-|3-3-3-3-3-3-|3-3-3-3-3-3-|
E|------------|------3-3-3-|------------|------------|

e|0-0-0-0-0-0-|0-0-0-------|0-0-0-0-0-0-|------------|------------|
B|1-1-1-1-1-1-|3-3-3-0-0-0-|1-1-1-1-1-1-|3-----3-----|3-----3-----|
G|0-0-0-0-0-0-|2-2-2-0-0-0-|0-0-0-0-0-0-|2-----2-----|2-----2-----|
D|2-2-2-2-2-2-|0-0-0-0-0-0-|2-2-2-2-2-2-|0-----------|------------|
A|3-3-3-3-3-3-|------2-2-2-|3-3-3-3-3-3-|------3-----|2-----0-----|
E|------------|------3-3-3-|------------|------------|------------|

[Outro]

e|------------|------------|------------|3-----------|
B|--3-0---3-3-|--0-0---0-0-|1-----3-----|0-----------|
G|--0-0---2-2-|--0-0---0-0-|0-----2-----|0-----------|
D|------------|------------|2-----0-----|0-----------|
A|------------|------------|3-----------|2-----------|
E|3-----2-----|0-----0-----|------------|3-----------|            
Submit corrections

↑ Back to top | Tablatures and chords for acoustic guitar and electric guitar, ukulele, drums are parodies/interpretations of the original songs. You may use it for private study, scholarship, research or language learning purposes only