Home » K » Kesha »

Kesha - Dancing With Tears In My Eyes Tabs

Artists:  A B C D E F G H I J K L M N O P Q R S T U V W X Y Z # 

Dancing With Tears In My Eyes Tabs

(ver. 1) Click to play this song!
Kesha
 -- Kesha – Dancing With Tears In My Eyes --

standard tuning EADGBE

                                          
Verse:
Here we go, welcome to my funeral...
guitar 1:
E||--------------------|
B||--------------------|
G||--------------------|x8
D||-999999999999-/777--|
A||--------------------|
E||--------------------|

guitar 2:
E||----------------------|
B||----------------------|
G||------5555------7777--|x4
D||-2222-5555-5555-7777--|
A||-2222-3333-5555-5555--|
E||-0000------3333-------|



Pre Chorus:
I had destroyed our love is gone...
guitar 1:
E||--------------------------------|
B||--------------------------------|
G||--------------------------------|
D||-999999999999-/777--99999999-7--|
A||--------------------------------|
E||--------------------------------|

guitar 2:
E||----------------------|
B||----------------------|
G||-5555-7777-5555-7-----|
D||-5555-7777-5555-7-----|
A||-3333-5555-3333-5-----|
E||----------------------|



Chorus:
I'm dancing with tears in my eyes...
guitar 1:
E||--------------------|
B||--------------------|
G||--------------------|x8
D||-999999999999-/777--|
A||--------------------|
E||--------------------|

guitar 2:
E||----------------------|
B||----------------------|
G||------5555------7777--|x4
D||-2222-5555-5555-7777--|
A||-2222-3333-5555-5555--|
E||-0000------3333-------|



Verse 2:
When did I become such a hypocrite...
guitar 1:
E||--------------------|
B||--------------------|
G||--------------------|x8
D||-999999999999-/777--|
A||--------------------|
E||--------------------|

guitar 2:
E||----------------------|
B||----------------------|
G||------5555------7777--|x4
D||-2222-5555-5555-7777--|
A||-2222-3333-5555-5555--|
E||-0000------3333-------|


PRE CHORUS

Chorus:
I'm dancing with tears in my eyes...
guitar 1:
E||--------------------|  |-------------------|
B||--------------------|  |-------------------|
G||--------------------|x7|-------------------|
D||-999999999999-/777--|  |-9999999944444444--|
A||--------------------|  |-------------------|
E||--------------------|  |-------------------|

guitar 2:
E||----------------------|  |----------------------|
B||----------------------|  |----------------------|
G||------5555------7777--|x3|------5555------------|
D||-2222-5555-5555-7777--|  |-2222-5555-5555-9999--|
A||-2222-3333-5555-5555--|  |-2222-3333-5555-9999--|
E||-0000------3333-------|  |-0000------3333-7777--|



Bridge:
This is it and now your really gone this time...
guitar 1:
E||-------------------------------------------|
B||-17~--15~------------17~--15~--------------|
G||------------16~--14------------16-14-------|
D||-------------------------------------16-13-|
A||-------------------------------------------|
E||-------------------------------------------|

guitar 2:                      
E||-----------------------------------------|
B||-----------------------------------------|
G||-5555------77777777--5555----------------|
D||-5555-5555-77777777--5555-5555-99999999--|
A||-3333-5555-55555555--3333-5555-99999999--|
E||------3333----------------3333-77777777--|

then:
guitar 1:
E||----------------------|
B||----------------------|
G||----------------------|
D||-9999-5555-9999-7-----|
A||----------------------|
E||----------------------|

guitar 2:
E||----------------------|
B||----------------------|
G||------5555------7-----|
D||-2222-5555-5555-7-----|
A||-2222-3333-5555-5-----|
E||-0000------3333-------|



End With Chorus:
I'm dancing with tears in my eyes...
guitar 1:
E||--------------------|
B||--------------------|
G||--------------------|x8
D||-999999999999-/777--|
A||--------------------|
E||--------------------|

guitar 2:
E||----------------------|
B||----------------------|
G||------5555------7777--|x4
D||-2222-5555-5555-7777--|
A||-2222-3333-5555-5555--|
E||-0000------3333-------|
            
Submit corrections

↑ Back to top | Tablatures and chords for acoustic guitar and electric guitar, ukulele, drums are parodies/interpretations of the original songs. You may use it for private study, scholarship, research or language learning purposes only