Home » K » Kesha »

Kesha - Backstabber Tabs

Artists:  A B C D E F G H I J K L M N O P Q R S T U V W X Y Z # 

Backstabber Tabs

(ver. 1) Click to play this song!
Kesha

standard tuning EADGBE


Hey this song is kinda the same all the way through except from the bridge =D
                                          
Intro:
E||------------------|  |--------------------|
B||------------------|  |--------------------|
G||-9----------------|x3|-9--77--------1212--|
D||-9--1010--10--77--|  |-9--77--1010--1212--|
A||-7—-1010--10--77--|  |-7--55--1010--1010--|
E||----8 8---8---55--|  |--------8-8---------|


Verse:(x2)
Bored, stoned sittin in your basement... 
E||------------------|  |--------------------|
B||------------------|  |--------------------|
G||-9----------------|x3|-9--77--------1212--|
D||-9--1010--10--77--|  |-9--77--1010--1212--|
A||-7—-1010--10--77--|  |-7--55--1010--1010--|
E||----8 8---8---55--|  |--------8-8---------|


Chorus:(x2)
E||------------------|  |--------------------|
B||------------------|  |--------------------|
G||-9----------------|x3|-9--77--------1212--|
D||-9--1010--10--77--|  |-9--77--1010--1212--|
A||-7—-1010--10--77--|  |-7--55--1010--1010--|
E||----8 8---8---55--|  |--------8-8---------|


Pre verse 2:
E||-----------------------------------|  
B||-----------------------------------|  
G||-9-----------------9---------------|
D||-9--1010--10--77---9--1010--10-----|  
A||-7—-1010--10--77---7--1010--10-----|  
E||----8 8---8---55------8-8---8------|  


Verse 2:(x2)
I'm sick and tired of hearin about...
E||------------------|  |--------------------|
B||------------------|  |--------------------|
G||-9----------------|x3|-9--77--------1212--|
D||-9--1010--10--77--|  |-9--77--1010--1212--|
A||-7—-1010--10--77--|  |-7--55--1010--1010--|
E||----8 8---8---55--|  |--------8-8---------|


CHORUS

Bridge:
Katie's to the left repping my style... 
E||-------------------------------|  |--------------------|
B||-------------------------------|  |--------------------|
G||-9999-4444-55555555------7777--|x3|-9--77--------1212--|
D||-9999-4444-55555555-5555-7777--|  |-9--77--1010--1212--|
A||-7777—2222-33333333-5555-5555--|  |-7--55--1010--1010--|
E||--------------------3333-------|  |--------8-8---------|

then:
E||------------------|  |--------------------|
B||------------------|  |--------------------|
G||-9----------------|x2|-9--77--------1212--|
D||-9--1010--10--77--|  |-9--77--1010--1212--|
A||-7—-1010--10--77--|  |-7--55--1010--1010--|
E||----8 8---8---55--|  |--------8-8---------|


Chorus:(x2)
E||------------------|  |--------------------|
B||------------------|  |--------------------|
G||-9----------------|x3|-9--77--------1212--|
D||-9--1010--10--77--|  |-9--77--1010--1212--|
A||-7—-1010--10--77--|  |-7--55--1010--1010--|
E||----8 8---8---55--|  |--------8-8---------|


End With:(x2)
E||------------------|  |--------------------|
B||------------------|  |--------------------|
G||-9----------------|x3|-9--77--------1212--|
D||-9--1010--10--77--|  |-9--77--1010--1212--|
A||-7—-1010--10--77--|  |-7--55--1010--1010--|
E||----8 8---8---55--|  |--------8-8---------|
            
Submit corrections

↑ Back to top | Tablatures and chords for acoustic guitar and electric guitar, ukulele, drums are parodies/interpretations of the original songs. You may use it for private study, scholarship, research or language learning purposes only