» » »

Kent - Om Du Var HäR Tabs

Artists:  A B C D E F G H I J K L M N O P Q R S T U V W X Y Z # 

Om Du Var HäR Tabs

(ver. 1) Click to play this song!
Kent
 Rating:
4/5 (4 votes)

 Om Du Var HäR lessons Tabs too difficult? Try these video lessons and learn fast
 
                ---------|-------4-|---2-----|---------|--------------------------------------
---2---3-|---2-----|-------3-|---2---2-|--------------------------------------
-----2---|-2---2---|-2---2---|-2---2---|--------------------------------------
-4-------|---------|---------|---------|--------------------------------------
---------|---------|---------|---------|--------------------------------------
---------|---------|---------|---------|--------------------------------------
 Intro:                            (4x)                                       

---------|----|----|----|-4p2-----|----|----|----|---------|----|----|----|---
-----2---|----|----|----|-------2-|----|----|----|-----3---|----|----|----|---
---2-----|----|----|----|---------|----|----|----|---4-----|----|----|----|---
-4-------|----|----|----|---------|----|----|----|-4-------|----|----|----|---
---------|----|----|----|---------|----|----|----|---------|----|----|----|---
---------|----|----|----|---------|----|----|----|---------|----|----|----|---
 Verse 1:                                                                     

---------|---------|----|----|------------------------------------------------
-3p2-----|---------|----|----|------------------------------------------------
-------2-|---------|----|----|------------------------------------------------
---------|---------|----|----|------------------------------------------------
---------|---------|----|----|------------------------------------------------
---------|---------|----|----|------------------------------------------------
 1st time:               (2x)                                                 

---------|---------|----|----|------------------------------------------------
-3p2-----|---------|----|----|------------------------------------------------
-------2-|---------|----|----|------------------------------------------------
---------|-------4-|----|----|------------------------------------------------
---------|---------|----|----|------------------------------------------------
---------|---------|----|----|------------------------------------------------
 2nd time:                                                                    

-------|-----|-----|-----|-----|-----|-----|-----|-----|----------------------
-------|-----|-----|-----|-----|-----|-----|-----|-----|----------------------
-------|-----|-----|-----|-----|--7--|--7--|-----|-----|----------------------
-------|--4--|--4--|--4--|--4--|--7--|--7--|--7--|--6--|----------------------
-------|--4--|--4--|--4--|--4--|--5--|--5--|--7--|--7--|----------------------
-------|--2--|--2--|--2--|--2--|-----|-----|--5--|--4--|----------------------
 Chorus:  F#    F#    F#    F#    D     D     A    A/G# (2x)                  


Verse 2: (Same as verse 1)                                                   


Chorus:                                                                      



----------|----|----|----|---------|----------|----|----|----|----------|-----
-7/9------|----|----|----|-9-7---7-|/10-------|----|----|----|-10-7-----|-----
----------|----|----|----|---------|----------|----|----|----|--------9-|-----
----------|----|----|----|---------|----------|----|----|----|----------|-----
----------|----|----|----|---------|----------|----|----|----|----------|-----
----------|----|----|----|---------|----------|----|----|----|----------|-----
 Solo:                                                                        

-|----|---------|---------|----|----|----|------------------------------------
-|----|---------|---------|----|----|----|------------------------------------
-|----|-7---6---|-6-------|----|----|----|------------------------------------
-|----|---------|---9---9-|----|----|----|------------------------------------
-|----|---------|---------|----|----|----|------------------------------------
-|----|---------|---------|----|----|----|------------------------------------
                                     (2x)                                     
---------|-------4-|---2-----|---------|--------------------------------------
---2---3-|---2-----|-------3-|---2---2-|--------------------------------------
-----2---|-2---2---|-2---2---|-2---2---|--------------------------------------
-4-------|---------|---------|---------|--------------------------------------
---------|---------|---------|---------|--------------------------------------
---------|---------|---------|---------|--------------------------------------
 Intro to verse 3:                                                            
---------|----|----|----|-4p2-----|----|----|----|---------|----|----|----|---
-----2---|----|----|----|-------2-|----|----|----|-----3---|----|----|----|---
---2-----|----|----|----|---------|----|----|----|---4-----|----|----|----|---
-4-------|----|----|----|---------|----|----|----|-4-------|----|----|----|---
---------|----|----|----|---------|----|----|----|---------|----|----|----|---
---------|----|----|----|---------|----|----|----|---------|----|----|----|---
 Verse 3:                                                                     

---------|---------|----|----|------------------------------------------------
-3p2-----|---------|----|----|------------------------------------------------
-------2-|---------|----|----|------------------------------------------------
---------|-------4-|----|----|------------------------------------------------
---------|---------|----|----|------------------------------------------------
---------|---------|----|----|------------------------------------------------
                                                                            

-------|-----|-----|-----|-----|-----|-----|-----|-----|----------------------
-------|-----|-----|-----|-----|-----|-----|-----|-----|----------------------
-------|-----|-----|-----|-----|--7--|--7--|-----|-----|----------------------
-------|--4--|--4--|--4--|--4--|--7--|--7--|--7--|--6--|----------------------
-------|--4--|--4--|--4--|--4--|--5--|--5--|--7--|--7--|----------------------
-------|--2--|--2--|--2--|--2--|-----|-----|--5--|--4--|----------------------
 Chorus:  F#    F#    F#    F#    D     D     A    A/G#                       

-------|-----|-----|-----|-----|-----|-----|-----|-----|----------------------
-------|-----|-----|-----|-----|-----|-----|-----|-----|----------------------
-------|-----|-----|-----|--7--|--4--|--4--|--7--|--4--|----------------------
-------|--4--|--3--|--2--|--7--|--4--|--4--|--7--|--4--|----------------------
-------|--4--|--4--|--2--|--5--|--2--|--2--|--5--|--2--|----------------------
-------|--2--|--1--|--0--|-----|-----|-----|-----|-----|----------------------
          F#   F#/F   E     D     B     B     D     B                         

-------|-----|-----|-----|-----|-----|-----|-----|-----|-----------|-----|----
-------|-----|-----|-----|-----|-----|-----|-----|-----|-----------|-----|----
-------|-----|-----|-----|--7--|--4--|--4--|--7--|--7--|-----------|-----|----
-------|--4--|--3--|--2--|--7--|--4--|--4--|--7--|--7--|-----------|--4--|----
-------|--4--|--4--|--2--|--5--|--2--|--2--|--5--|--5--|-----------|--4--|----
-------|--2--|--1--|--0--|-----|-----|-----|-----|-----|-----------|--2--|----
          F#   F#/F   E     D     B     B     D     D    Last chord:  F#
            
Submit corrections


        Om Du Var HäR lessons Hard to play? Try these video lessons and learn fast Om Du Var HäR lessons
        
↑ Back to top | Tablatures and chords for acoustic guitar and electric guitar, ukulele, drums are parodies/interpretations of the original songs. You may use it for private study, scholarship, research or language learning purposes only