» » »

Kent - Karleken Vantar Tabs

Artists:  A B C D E F G H I J K L M N O P Q R S T U V W X Y Z # 

Karleken Vantar Tabs

(ver. 1) Click to play this song!
Kent
 Rating:
4.3/5 (19 votes)

 Karleken Vantar lessons Tabs too difficult? Try these video lessons and learn fast
 
                [Solo]

e|----------------------5------------7/8\7-------------------------------------------|
B|------------------------8----------------5-8/10\8------6-6-5-8-6-5-6-5-8-6-5-5-----|
G|-/7-7-5-7/9\7-5-7--5-------5-7/9-------------------5-------------------------------|
D|-----------------------------------------------------------------------------------|
A|-----------------------------------------------------------------------------------|
E|-----------------------------------------------------------------------------------|

e|---5---7--7/8\7---7/8\7------------------------------------------------------------|
B|-8--------------5------------------------------------------------------------------|
G|--------------------------7--7B-7-5------------------------------------------------|
D|------------------------------------7----------------------------------------------|
A|-----------------------------------------------------------------------------------|
E|-----------------------------------------------------------------------------------|            
Submit corrections


        Karleken Vantar lessons Hard to play? Try these video lessons and learn fast Karleken Vantar lessons
        
↑ Back to top | Tablatures and chords for acoustic guitar and electric guitar, ukulele, drums are parodies/interpretations of the original songs. You may use it for private study, scholarship, research or language learning purposes only