» » »

Kenny Rogers - Neutered Fruit Tabs

Artists:  A B C D E F G H I J K L M N O P Q R S T U V W X Y Z # 

Neutered Fruit Tabs

(ver. 1) Click to play this song!
Kenny Rogers
 Rating:
4.3/5 (18 votes)

 Neutered Fruit lessons Tabs too difficult? Try these video lessons and learn fast
 
                
[Intro]
e|---------------------------------------------------------------------------|
B|---------------------------------------------------------------------------|
G|---------------------------------------------------------------------------|
D|---------------------------------------------------------------------------|
A|---------------------------------------------------------------------------|
D|---------------------------------------------------------------------------|

e|---------------------------------------------------------------------------|
B|---------------------------------------------------------------------------|
G|---------------------------------------------------------------------------|
D|---------------------------------------------------------------------------|
A|---------------------------------------------------------------------------|
D|---------------------------------------------------------------------------|

[Verse]
I ate flowers in the backyard... A finely neutered fruit

e|------------------------------------------0----------3-0-------------------|
B|--------------------------------------------3--1-----------3-1-------------|
G|-2-4-5-5-4-2---7--7-7----------------------------2-------------------------|
D|-2-4-5-5-4-2---7--7-7-------------------------------------------0----------|
A|----------------------------------------------------------------0----------|
D|----------------------------------------------------------------0----------|

e|----------------------------------------0----------3-0-------0-------------|
B|------------------------------------------3--1-----------1-3---3-1-3-------|
G|-2-4-5-5--4-2---7--7-7-------------------------2---------2---------2-------|
D|-2-4-5-5--4-2---7--7-7------------------------------------------------0----|
A|----------------------------------------------------------------------0----|
D|----------------------------------------------------------------------0----|

Repeat this riff x3 and then --> 
e|--------------------------  -----------------0----------3-0----------------|
B|--------------------------  -------------------3--1-----------3-1----------|
G|-2-4-5-5--4-2---7--7-7----  ------------------------2----------------------|
D|-2-4-5-5--4-2---7--7-7----  -----------------------------------------------|
A|--------------------------  -----------------------------------------------|
D|--------------------------  -----------------------------------------------|

[Chorus]
Don't run...

Here you can just play a G chord and move around how you please 

[Solo]
x3

e|---7--7--7-----5--5--5-----1-----1---1---3----5----------------------------|
B|---6--6--6-----5--5--5-----1-----1---1---1----5----------------------------|
G|---7--7--7-----5--5--5-----2-----2---2---2----5----------------------------|
D|-0--00--0-----0--0--0----0----00----0--0-----------------------------------|
A|---------------------------------------------------------------------------|
D|---------------------------------------------------------------------------|            
Submit corrections


        Neutered Fruit lessons Hard to play? Try these video lessons and learn fast Neutered Fruit lessons
        
↑ Back to top | Tablatures and chords for acoustic guitar and electric guitar, ukulele, drums are parodies/interpretations of the original songs. You may use it for private study, scholarship, research or language learning purposes only