» » »

Kenny Chesney - Dont It Chords

Artists:  A B C D E F G H I J K L M N O P Q R S T U V W X Y Z # 

Dont It Chords

(ver. 2) Click to play this song!
Kenny Chesney
 Rating:
4/5 (4 votes)

 Dont It  lessons Tabs too difficult? Try these video lessons and learn fast
 
                DON’T IT

e|----------------------------------------------|
B|--1-------------------------------------------|
G|--0h2--2/5--5/2-0------0--0-2-----------------|
D|-------------------0-2---------3-2-0----------|> this may not be 100% but this is how I play it
A|----------------------------------------------|
E|----------------------------------------------|

e|----------------------------------------------|
B|--1-------------------------------------------|
G|--0h2--2/5--5/2-0------0--0-2-----------------|
D|-------------------0-2---------3-2-0----------|
A|----------------------------------------------|
E|----------------------------------------------|

C
THIRTEEN IN THE THICK OF A CORNFIELD
  Am                          F
I LEARNED TO FIGHT KEEP ROPES TIGHT AND NOT CHILL
C
NEVER DID CHANGE STAYED STRANGE HOPPED A TRAIN
Am                F
MY FIRST CHANCE I GOT OUT OF SMALLVILLE 
C                           F
LIFE HAS IT’S WAY OF MOVING YOU ON DON’T IT’

e|----------------------------------------------|
B|--1-------------------------------------------|
G|--0h2--2/5--5/2-0------0--0-2-----------------|
D|-------------------0-2---------3-2-0----------|
A|----------------------------------------------|
E|----------------------------------------------|

C
MY FIRST STOP WAS A PAWN SHOP
          Am                       F
DROPPED A PRETTY PENNY FOR A CHEAP FENDER WITH A SONG IN IT
C
I HAD A QUICK RIGHT HAND AN OLD BAND
  Am                   F
I THOUGHT GOOD FRIENDS WOULD MAKE A GOOD BAND
C                            F
LIFE HAS IT’S WAY OF PROVING YOU WRONG DON’T IT’

C
I'VE BEEN RIGHT AND I’VE BEEN WRONG
          F              
SOMEWHERE IN BETWEEN FOR SO LONG
C                                             F
LIVE THE NIGHT, MISS THE LIGHT, AND I’VE BEEN SHOWN IT
C                             F
LIFE HAS IT’S WAY OFF KEEPING YOU STRONG DON’T IT

e|----------------------------------------------|
B|--1-------------------------------------------|
G|--0h2--2/5--5/2-0------0--0-2-----------------|
D|-------------------0-2---------3-2-0----------|
A|----------------------------------------------|
E|----------------------------------------------|

C
SO THERE I WAS A LONG WAY FROM NOWHERE
Am                F
FRIED MIND, SPARE TIME, AND A BLANK STARE
C
I WAS JUST NUMB ENOUGH NOT TO FILL A THING
Am           F
AFTER ALL WE DIDN’T SHARE A SET OF RINGS
C
BESIDES HOW BAD COULD IT BE
      Am                 F
SHE’D NEVER FIND OUT I’D NEVER COME CLEAN
C                            F
LIFE HAS IT’S WAY OF LEADING YOU ON DON’T IT’ 

C
I'VE BEEN RIGHT AND I’VE BEEN WRONG
          F              
SOMEWHERE IN BETWEEN FOR SO LONG
C                                             F
LIVE THE NIGHT, MISS THE LIGHT, AND I’VE BEEN SHOWN IT
C                             F
LIFE HAS IT’S WAY OFF KEEPING YOU STRONG DON’T IT    

C  Am  F    C  Am  F

C                                    Am 
WELL NOW HAVE YOU EVER BEEN DOWN THE OLD BACK ROADS
F
ON TIME BORROWED
C                                         Am
IT’S A TRIP, IT’S A b**ch, IT’S AN ON OFF LIGHT SWITCH
  F
NOBODY FOLLOWS

C
EVERYBODY’S GOT THEIR OWN PAST 
          Am                   F
SKELETONS TO STASH, DON’T LOOK BACK IF YOU DO LAUGH
C                           F
LIFE HAS IT’S WAY OF MOVING YOU ON DON’T IT’ 
            
Submit corrections


        Dont It  lessons Hard to play? Try these video lessons and learn fast Dont It  lessons
        
↑ Back to top | Tablatures and chords for acoustic guitar and electric guitar, ukulele, drums are parodies/interpretations of the original songs. You may use it for private study, scholarship, research or language learning purposes only