» » »

Kelly Jones - Violet Tabs

Artists:  A B C D E F G H I J K L M N O P Q R S T U V W X Y Z # 

Violet Tabs

(ver. 1) Click to play this song!
Kelly Jones
 Rating:
4.2/5 (5 votes)
    Violet lessons Tabs too difficult? Try these video lessons and learn fast
                Violet-Kelly Jones

Capo 4th fret 

All chords relative to the capo.

Chord Chart
      EADGBe
Am:   x02210
G:    320033
F:    x3321x
C:    x32010
C/B:  x20010

Verse

Am      G        F

Chorus

e-------0----------0--------0--------0----|
B-------1----------1--------1--------1----|
G-----0---0------0---0------2-2----2---2--|
D---2----------0----------2------3--------|
A-3----------2----------0-----------------|
E-----------------------------------------| x2

Verse

Am      G       F  

Chorus

e-------0----------0--------0--------0----|
B-------1----------1--------1--------1----|
G-----0---0------0---0------2-2----2---2--|
D---2----------0----------2------3--------|
A-3----------2----------0-----------------|
E-----------------------------------------| x4
            
Submit corrections

↑ Back to top | Tablatures and chords for acoustic guitar and electric guitar, ukulele, drums are parodies/interpretations of the original songs. You may use it for private study, scholarship, research or language learning purposes only