» » »

Keith Richards - Only Found Out Yesterday Tabs

Artists:  A B C D E F G H I J K L M N O P Q R S T U V W X Y Z # 

Only Found Out Yesterday Tabs

(ver. 1) Click to play this song!
Keith Richards
 Rating:
4/5 (4 votes)

 Only Found Out Yesterday lessons Tabs too difficult? Try these video lessons and learn fast
 
                -------------------------------------------------------------------------------
            Only found out Yesterday – Keith Richards                             
-------------------------------------------------------------------------------

This is the version ithat should fit to:

Tuning: eBGDAE (standard)

opening chord
e|-------|                                                                    
B|---3---|
G|---2---|
D|---0---|
A|---0---|
E|-------|


e|---0-2-3--2-0-|-------------|-0-2-3-3/5-3p2-|----0-----0-2-0-3-2-3/5-3-5/7-|
B|-3------------|-3-3-2-2-2-2-|---------------|---2--3--3--------------------|
G|--------------|-2-2-2-2-2-2-|---------------|--0---2-----------------------|
D|--------------|-------------|---------------|------------------------------|
A|--------------|-0-0-0-0-0-0-|---------------|-0----000~~-------------------|
E|--------------|-------------|---------------|------------------------------|

e|-5-7/8~-5-5~/7-7—-7/5-5/3-2p0----------0-2-3-2p0---------------------------|
B|------------------------------3-2-2--3-----------3/2-------3------3--2--0-3|
G|--------0-0~~0-0--0---0---0---2-2-2--------------2~------2-------4---2--0-2|
D|-------------------------------------------------------0-------2----------0|
A|------------------------------0-0-0--------------0---0---------------0-----|
E|-------------------------------------------------------------4----------3--|

e|---0-2-3-2-0-|-------------|-0-2-3/5-3p2-|-----0-------0-2-0-3-2-3/5-3-5/7-|
B|-3-----------|-3-3-2-2-2-2-|-------------|----2--3----3--------------------|
G|-------------|-2-2-2-2-2-2-|-------------|---0---2-------------------------|
D|-------------|-------------|-------------|---------------------------------|
A|-------------|-0-0-0-0-0-0-|-------------|-0-----000-00--------------------|
E|-------------|-------------|-------------|---------------------------------|

e|-5-7/8-5-5~/7-7—-7/5-5/3-2p0---------0-2-3-2-0-----------------------------|  
B|-----------------------------3-2-2-------------3-2-------3------3--------3-|
G|-------0-0~~0-0--0---0---0---2-2-2-------------2-2-----2-------4-------2---|
D|-----------------------------------------------------0-------2-------0-----|
A|-----------------------------0-0-0-------------0-0----------2------0-------|
E|---------------------------------------------------2-------4---------------|

e|---------------------------------------------------------------------------|
B|-------0-------3-----------------------------------------------------------|
G|-----0--------2------------------------------------------------------------|
D|---0---------0-------------------------------------------------------------|
A|------------0--------------------------------------------------------------|
E|-3---------2---------------------------------------------------------------|

************************************

| /   slide up
| \   slide down
| h   hammer-on
| p   pull-off
| ~   hold note
| +   harmonic
| x   Mute note
| b   Bend
| pb  Pre-bend
| br  Bend release
| pbr Pre-bend release
| brb Bend release bend

************************************
            
Submit corrections


        Only Found Out Yesterday lessons Hard to play? Try these video lessons and learn fast Only Found Out Yesterday lessons
        
↑ Back to top | Tablatures and chords for acoustic guitar and electric guitar, ukulele, drums are parodies/interpretations of the original songs. You may use it for private study, scholarship, research or language learning purposes only