» » »

Keith Richards - Crosseyed Heart Tabs

Artists:  A B C D E F G H I J K L M N O P Q R S T U V W X Y Z # 

Crosseyed Heart Tabs

(ver. 1) Click to play this song!
Keith Richards
 Rating:
3.5/5 (22 votes)

 Crosseyed Heart  lessons Tabs too difficult? Try these video lessons and learn fast
 
                Tuning: Standard

e|--------------------8/9--9--9----9-----12-12/11--11-10---10-----8--7-------|
B|--------------------7/8--8--8----8-----9--9------9--9----9------7--7---7---|
G|--------------------8/9--9-------9-----------------------9------------7----|
D|-------------------------------------9-9--9------9--9--9-9----7-7----------|
A|-0-0-0-0-0-0-0-0---------0----0-0------------------------------------------|
E|---------------------------------------------------------------------------|

e|-10--8/7------8-----7--8-8------3-3-2-3-------0----------------------------|
B|-7---7--------7-----7--7-7------2-2-2-2---------3/5/3p0--------------------|
G|-----------------7--------------------------------------2p0-0h1p0----------|
D|-7---7----7------------------------------------------------2---------------|
A|0--------9----0-----0--0--0--0--0--0--0---------------------------0--------|
E|-----------------------------------------3b--0-----------------------------|

e|----------------0-------0--------------------------------------------------|
B|--------------------0---0--------------------------------------------------|
G|--------------------0------------------------------------------------------|
D|--7---7---7--7------0------------------------------------------------------|
A|-4-4-5-5-6-6-7----7---7----------------------------------------------------|
E|---------------------------------------------------------------------------|
            
Submit corrections


        Crosseyed Heart  lessons Hard to play? Try these video lessons and learn fast Crosseyed Heart  lessons
        
↑ Back to top | Tablatures and chords for acoustic guitar and electric guitar, ukulele, drums are parodies/interpretations of the original songs. You may use it for private study, scholarship, research or language learning purposes only