» » »

Keith Richards - Deuce And A Quarter Chords

Artists:  A B C D E F G H I J K L M N O P Q R S T U V W X Y Z # 

Deuce And A Quarter Chords

(ver. 1) Click to play this song!
Keith Richards
 Rating:
2.7/5 (27 votes)

 Deuce And A Quarter  lessons Tabs too difficult? Try these video lessons and learn fast
 
                INTRO RIFF: 

    G                           C
E ---------------------------|---------------------------|
B --3--3--3--3----1---0--0---|--8--8--8--8----6---5--5---|
G --4--4--4--4----2---0--0---|--9--9--9--9----7---5--5---|
D ---------------------------|---------------------------|
A ---------------------------|---------------------------|
E ---------------------------|---------------------------|

    D                           G
E ---------------------------|---------------------------|
B --5--5--3--5----7----7-----|--3--3--3--3----1---0--0---|
G --5--5--4--5----7----7-----|--4--4--4--4----2---0--0---|
D ---------------------------|---------------------------|
A ---------------------------|---------------------------|
E ---------------------------|---------------------------|


VERSE: 
(LEVON HELM) 
                     G 
Buy a bottle get to feeling good 
                           C 
World's lookin' like you think it should 
                    D 
Happy hour, Honey everyone's your friend 
                       G 
Closing time shut her down again 


VERSE:
G
Up in the morning and your facing town 
                      C 
Walk the same streets up and down. 
                        D 
A fire burning in your worn out shoes 
                   G 
Every day you got something to prove. 


BREAK: 
                     C 
A curb feelers and fender skirts 
                             G 
Scrub the chrome 'till your elbow hurts 
                   D 
A pinstripes and cherry packs 
                      G 
Grass stains on your second hand slacks. 
                            C 
Keep on bettin' think you gonna win 
                         G 
You can dress it up and try to pretend 
                   D 
A car's a car and that's a fact 
                                G 
A deuce and a quarter ain't no cadillac. 


INSTRUMENTAL: 

    G                           C
E ---------------------------|---------------------------|
B --3--3--3--3----1---0--0---|--8--8--8--8----6---5--5---|
G --4--4--4--4----2---0--0---|--9--9--9--9----7---5--5---|
D ---------------------------|---------------------------|
A ---------------------------|---------------------------|
E ---------------------------|---------------------------|

    D                           G
E ---------------------------|---------------------------|
B --5--5--3--5----7----7-----|--3--3--3--3----1---0--0---|
G --5--5--4--5----7----7-----|--4--4--4--4----2---0--0---|
D ---------------------------|---------------------------|
A ---------------------------|---------------------------|
E ---------------------------|---------------------------|


VERSE: 
(KEITH RICHARDS) 1:15 
                    G
Uncle Johnny has a country act
                   C
His headache is a heart attack 
                       D
Honey bring me down a couple more pills 
                         G
Call the lawyer up and change my will. 


BREAK: 
                    C
Ham sandwich and a glass of tea 
                    G
Lunch is cheap but never free 
                     D
Shaking hands and scratching backs 
                       G
Grease stains on your second hand slacks 

                             C  
Keep on bettin think you're gonna win 
                         G
You can dress it up and try to pretend 
                    D  
A car's a car and that's a fact 
                               G
A deuce and a quarter ain't a cadillac. 


INSTRUMENTAL: 

    G                           C
E ---------------------------|---------------------------|
B --3--3--3--3----1---0--0---|--8--8--8--8----6---5--5---|
G --4--4--4--4----2---0--0---|--9--9--9--9----7---5--5---|
D ---------------------------|---------------------------|
A ---------------------------|---------------------------|
E ---------------------------|---------------------------|

    D                           G
E ---------------------------|---------------------------|
B --5--5--3--5----7----7-----|--3--3--3--3----1---0--0---|
G --5--5--4--5----7----7-----|--4--4--4--4----2---0--0---|
D ---------------------------|---------------------------|
A ---------------------------|---------------------------|
E ---------------------------|---------------------------|


VERSE: 
(LEVON HELM) 2:07 
                   G
Got a date gotta dress with care 
                     C
Wash the gray right out of my hair. 

(KEITH RICHARDS) 2:13 
                   D
Clean the car and when I'm through 
                    G
Wax it up till it looks brand new. 



BREAK: 
(HELM & RICHARDS) 2:19 
                      C
A curb feelers and a fender skirt 
                             G
Scrub the chrome 'till your elbows hurt. 
       
(LEVON HELM)
                 D
Pinstripes and cherry packs 
                      G
Grass stains on your second hand slacks. 

(KEITH RICHARDS) 2:32 
                            C
Keep on bettin' think your gonna win 
                         G
You can dress it up and try to pretend. 
 
(HELM & RICHARDS) 
                     D
A car's a car, and that's a fact 
                                    G
But a Deuce and a quarter ain't no cadillac. 
                    D
A car's a car, and that's a fact 
                                    G
But a Deuce and a quarter ain't no cadillac. 


INSTRUMENTAL:                      
    G                           C
E ---------------------------|---------------------------|
B --3--3--3--3----1---0--0---|--8--8--8--8----6---5--5---|
G --4--4--4--4----2---0--0---|--9--9--9--9----7---5--5---|
D ---------------------------|---------------------------|
A ---------------------------|---------------------------|
E ---------------------------|---------------------------|

    D                           G
E ---------------------------|---------------------------|
B --5--5--3--5----7----7-----|--3--3--3--3----1---0--0---|
G --5--5--4--5----7----7-----|--4--4--4--4----2---0--0---|
D ---------------------------|---------------------------|
A ---------------------------|---------------------------|
E ---------------------------|---------------------------|


(THIS TIME EITHER PLAY THIS AND/OR IMPROVISE FOR KEITH'S SOLO)
    G                           C
E ---------------------------|---------------------------|
B --3--3--3--3----1---0--0---|--8--8--8--8----6---5--5---|
G --4--4--4--4----2---0--0---|--9--9--9--9----7---5--5---|
D ---------------------------|---------------------------|
A ---------------------------|---------------------------|
E ---------------------------|---------------------------|

    D                           G
E ---------------------------|---------------------------|
B --5--5--3--5----7----7-----|--3--3--3--3----1---0--0---|
G --5--5--4--5----7----7-----|--4--4--4--4----2---0--0---|
D ---------------------------|---------------------------|
A ---------------------------|---------------------------|
E ---------------------------|---------------------------|

OUTRO:
    G                           C
E ---------------------------|---------------------------|
B --3--3--3--3----1---0--0---|--8--8--8--8----6---5--5---|
G --4--4--4--4----2---0--0---|--9--9--9--9----7---5--5---|
D ---------------------------|---------------------------|
A ---------------------------|---------------------------|
E ---------------------------|---------------------------|

    D                           G                 Ab  G
E ---------------------------|--------------------4---3----|
B --5--5--3--5----7----7-----|--3--3--3--3----1---4---3----|
G --5--5--4--5----7----7-----|--4--4--4--4----2---5---4----|
D ---------------------------|--------------------6---5----|
A ---------------------------|--------------------6---5----|
E ---------------------------|--------------------4---3----|
            
Submit corrections


        Deuce And A Quarter  lessons Hard to play? Try these video lessons and learn fast Deuce And A Quarter  lessons
        
↑ Back to top | Tablatures and chords for acoustic guitar and electric guitar, ukulele, drums are parodies/interpretations of the original songs. You may use it for private study, scholarship, research or language learning purposes only