» » »

Keith Anderson - Pickin' Wild Flowers Correct (with Capo) Tabs

Artists:  A B C D E F G H I J K L M N O P Q R S T U V W X Y Z # 

Pickin' Wild Flowers Correct (with Capo) Tabs

(ver. 1) Click to play this song!
Keith Anderson
 Rating:
4/5 (4 votes)

 Pickin' Wild Flowers Correct (with Capo) lessons Tabs too difficult? Try these video lessons and learn fast
 
                This is the version in Low D (Drop D) tuning and a Capo used on the First 
Fret.  This is a great way to play the song without having to tune every 
single string.  if your famous, or rich and have a lot of guitars, just 
keep one of your guitars tuned a half step down and play it by the other 
tab of this, but if your like me, and only have one main guitar, or are 
on stage and only have one guitar with ya, this is an easier way to play.  
you can take my pulloffs and hammer ons and slides to your liking or not.  
i have kinda developed my own style of playing and use my own techniques to 
get the right notes in there, so these notes are correct, but you 
dont necessicerily have to follow all the hammers and pulls and bends 
right down to it. just have fun with this song, do what ya can. 



E---------1b--------------------------1b---------------------
B-----------3-1---------------------------3-1----------------
G---------------2p0-0---0h1p0-----------------2p0-0-----0/2--
D---------------------3-------3(b)(p0)-----------------3-----
A------------------------------------------------------------
D-0-3b-0----------------------------0------------------------



E---------1b-------------------------1---1-----1---1---
B-----------3-1----------------------0---0-----0---0--- 
G---------------2p0-0---0h1p0-------(0)-(0)---(0)-(0)--
D---------------------3-------3(b)-0--------0----------
A------------------------------------------------------
D-0-3b-0-----------------------------------------------
            
Submit corrections


        Pickin' Wild Flowers Correct (with Capo) lessons Hard to play? Try these video lessons and learn fast Pickin' Wild Flowers Correct (with Capo) lessons
        
↑ Back to top | Tablatures and chords for acoustic guitar and electric guitar, ukulele, drums are parodies/interpretations of the original songs. You may use it for private study, scholarship, research or language learning purposes only