Home » K » Kathryn Scott »

Kathryn Scott - Hungry Falling On My Knees Tabs

Artists:  A B C D E F G H I J K L M N O P Q R S T U V W X Y Z # 

Hungry Falling On My Knees Tabs

(ver. 2) Click to play this song!
Kathryn Scott
Tuning: standard

e|------8-7-------5--3h5p3----8-7--------------------------------------------|
B|---5/8----8-8\5-5--------5/8----8-5----------------6br8-5------------------|
G|------------------------------------7br9p5h7---5-7---------7/14p12-14------|
D|---------------------------------------------------------------------------|
A|---------------------------------------------------------------------------|
E|---------------------------------------------------------------------------|

e|-------------------------------------------------15------------------------|
B|------------------------15h17p15----15-----------------15------------------|
G|--14/17p14-17br19-17h19----------17----17br19-17----17----17-12--whammy bar|
D|---------------------------------------------------------------------------|
A|---------------------------------------------------------------------------|
E|---------------------------------------------------------------------------|            
Submit corrections

↑ Back to top | Tablatures and chords for acoustic guitar and electric guitar, ukulele, drums are parodies/interpretations of the original songs. You may use it for private study, scholarship, research or language learning purposes only