» » »

Katharine Mcphee - Terrified Tabs

Artists:  A B C D E F G H I J K L M N O P Q R S T U V W X Y Z # 

Terrified Tabs

(ver. 1) Click to play this song!
Katharine Mcphee
 Rating:
4.6/5 (11 votes)

 Terrified lessons Tabs too difficult? Try these video lessons and learn fast
 
                Capo 8

G - 320033
Dsus4/F# - 2x0233
Em7 - x22033
Cadd9 -x32033

INTRO:
           G             Dsus4/F#             Em7             Cadd9
e|------------------|------------------|--------------------|---x---||
B|-------3------3---|--------3------3--|--------3------3----|---3---||
G|---0-----0--------|----0-----0-------|----0-----0---------|---0---||
D|-----0-----0------|------0-----0-----|-------0-----0------|---2---||
A|------------------|------------------|--2-----------------|---3---||
E|-3----------------|--2---------------|--------------------|-------||

Verse 1:
             G                 Dsus4/F#          Em7                   Cadd9
e|------------------|--------------------|--------------------|-------------------------|
B|-------3------3---|--------3------3----|--------3------3----|-------------3--------3--|
G|---0-----0--------|----0-----0---------|----0-----0---------|-------0-------0---------|
D|-----0-----0------|------0-----0-------|-------0-----0------|----------0--------0-----|
A|------------------|--------------------|--2-----------------|---3---------------------|
E|-3----------------|--2-----------------|--------------------|-------------------------|

   You --- by the     light  is            the  greatest         find --      In  a


e|------------------|--------------------|--------------------|-------------------------|
B|-------3------3---|----------3------3--|--------3------3----|-------------3--------3--|
G|---0-----0--------|------0-------0-----|----0-----0---------|-------0-------0---------|
D|-----0-----0------|----------0-----0---|-------0-----0------|----------0--------0-----|
A|------------------|--------------------|--2-----------------|---3---------------------|
E|-3----------------|--2-----------------|--------------------|-------------------------|
   world full of       wrong you're the    thing   that's        right ---   Finally


e|------------------|--------------------|--------------------|--------------------|
B|-------3------3---|----------3------3--|--------3------3----|-------------3------|
G|---0-----0--------|------0-------0-----|----0-----0---------|-------0------------|
D|-----0-----0------|----------0-----0---|-------0-----0------|----------0---------|
A|------------------|--------------------|--2-----------------|---3----------------|
E|-3----------------|--2-----------------|--------------------|--------------------|
   made it thru the   lonely to the       other                  side

Chorus:
            G                   Dsus4/F#     Em7               Cadd9
You set it again my heart    in motion every word feels like a shooting star
           G           Dsus4/F#               Em7               Cadd9
I'm at the edge of my emotions  Watchin' the shadows burnin' in the dark

    G          Dsus4/F#
And I-I-I'm in love (I'm in love)
Em7          Cadd9
And I-I-I'm terrified
         G           
For the first time
        Dsus4/F# 
And the last time
        Em-Cadd9   G -Dsus4/F#-Em7-Cadd9
In my   on--ly     life

Verse 2:
G-Dsus4/F#-Em7-Cadd9
And this could be good it's already better than that
And nothing's worse than knowing you're holding back
I could be all that you needed if you let me try

Bridge:
Em7      Dsus4/F#        Cadd9
I   only said it 'Cause I mean it (ohhhh)
Em7      Dsus4/F#        Cadd9
I   only mean it 'Cause it's true (ohhhhh)

Em           Dsus4/F#            Cadd9
So don't you tear What i've been dreaming
          Em7                Dsus4/F#        
'Cause it fills me up and it holds me close
Cadd9
whenever I'm without you
            
Submit corrections


        Terrified lessons Hard to play? Try these video lessons and learn fast Terrified lessons
        
↑ Back to top | Tablatures and chords for acoustic guitar and electric guitar, ukulele, drums are parodies/interpretations of the original songs. You may use it for private study, scholarship, research or language learning purposes only