» » »

Katatonia - In The White Tabs

Artists:  A B C D E F G H I J K L M N O P Q R S T U V W X Y Z # 

In The White Tabs

(ver. 2) Click to play this song!
Katatonia
 Rating:
4/5 (4 votes)

 In The White lessons Tabs too difficult? Try these video lessons and learn fast
 
                Intro / Pre-Verse:
    Acoustic Guitar:
    C |--5--------|--5--------|--5--------|--0--------|--0--------|
    G |--5--------|--5--------|--5--------|--5--------|--3--------|
    D#|--5--------|--5--------|--5--------|--5--------|--2--------|
    A#|--7--------|--6--------|--5--------|--4--------|--3--------|
    F |-----------|-----------|-----------|-----------|-----------|
    C |-----------|-----------|-----------|-----------|-----------|
    
    Electric guitar:
    C |----------------5~-|---------------5p3----|--------------5-5~-|-------------------|
    G |-5h6p5p0-3~---3----|-5h6p5p0-3~--------5~-|-5h6p5p0-3~--------|-5h6p5p0-3~---1----|
    D#|-------------------|----------------------|-------------------|----------------2~-|
    A#|-------------------|----------------------|-------------------|-------------------|
    F |-------------------|----------------------|-------------------|-------------------|
    C |-------------------|----------------------|-------------------|-------------------|


Verse 1:
    Fm            D#6     D#6  Fm
    Are you in or are you out
    
    Fm               D#6       D#6   Fm    
    Words are stones in my mouth
    
    Fm               D#6       D#6   Fm    
    Hush little baby don't you cry
    
    Fm               D#6       D#6       C#    
    Truth comes down strikes me in the eye


Verse 2:
    Fm              D#6         Fm
    Turning seasons within
    
    Fm              D#6         Fm
    Brand new nails across my skin
    
    Fm        D#6      Fm
    Who am I to imply?
    
    Fm                     D#6                  C#
    That I was found and I found you in the white


Chorus 1:
    Fm               A#m      Fm
    To overcome this I become one with
    
    Fm           C#m     Fm
    Quiet colder late november
    
    Fm              A#m      Fm
    If you dont see I remain unseen
    
    Fm                D#     Fm
    Till it's time to be remembered


Verse 3:
    Fm                 D#6  D#6    Fm
    So I had a green light, I was lost in city lights
    
    Fm                 D#6  D#6    Fm    
    Not so far from a try, this is not our last good bye
    
    Fm                 D#6  D#6    Fm
    So I had a green light, I was lost in city lights
    
    Fm                 D#6  D#6    C#
    Not so far from a try, this is not our last good bye


Bridge(x2):
    C |---3-------|---3-------|---3-------|---7-------|---5-------|---5-------|
    G |-----0---0-|-----0---0-|-----0---0-|-----0---0-|-----0---0-|-----0---0-|
    D#|-2-----2---|-4-----4---|-5-----5---|-7-----7---|-5-----5---|-5-----5---|
    A#|-----------|-----------|-----------|-----------|-----------|-----------|
    F |-----------|-----------|-----------|-----------|-----------|-----------|
    C |-----------|-----------|-----------|-----------|-----------|-----------|
    
    C |-----0-----|-----0-----|-----0-----|-----0-----|-----------|-----------|
    G |---3---3---|---3---3---|---3---3---|---3---3---|-----0-----|-----0-----|
    D#|-5-------5-|-4-------4-|-2-------2-|-1-------1-|---3---3---|---3---3---|
    A#|-----------|-----------|-----------|-----------|-1-------1-|-1-------1-|
    F |-----------|-----------|-----------|-----------|-----------|-----------|
    C |-----------|-----------|-----------|-----------|-----------|-----------|
    
    C |---------0-------|---------0-------|---------0-------|
    G |-------0-----0---|-------0-----0---|-------0-----0---|
    D#|-----4-----4---4-|-----4-----4---4-|-----4-----4---4-|
    A#|-2-2-------------|-2-2-------------|-2-2-------------|
    F |-----------------|-----------------|-----------------|
    C |-----------------|-----------------|-----------------|


Chorus 2:
    Fm               A#m          Fm
    So I found you, found the way all through
    
    Fm                C#m   Fm
    The quiet cold of inner darkness
    
    Fm                    A#m        Fm    
    Now that you're here, it becomes so clear
    
    Fm            D#      Fm 
    I have waited for you always



CHORDS:
     Fm      D#6      C#     A#m     C#m      D#   
C |---0---|---0---|---1---|---1---|---1---|---3---|
G |---1---|---0---|---1---|---3---|---1---|---0---|
D#|---2---|---0---|---2---|---2---|---1---|---0---|
A#|---2---|---0---|---3---|---0---|---3---|---0---|
F |---0---|---2---|---3---|---x---|---3---|---2---|
C |---x---|---3---|---1---|---x---|---1---|---3---|
            
Submit corrections


        In The White lessons Hard to play? Try these video lessons and learn fast In The White lessons
        
↑ Back to top | Tablatures and chords for acoustic guitar and electric guitar, ukulele, drums are parodies/interpretations of the original songs. You may use it for private study, scholarship, research or language learning purposes only