» » »

Kaskade - Turn It Down Tabs

Artists:  A B C D E F G H I J K L M N O P Q R S T U V W X Y Z # 

Turn It Down Tabs

(ver. 1) Click to play this song!
Kaskade
 Rating:
4.5/5 (22 votes)

 Turn It Down  lessons Tabs too difficult? Try these video lessons and learn fast
 
                  Tuning: Standard

  Guitar 1:
e|---------------------------------------------------------------------------|
B|---------------------------------------------------------------------------|
G|------0------------------0----------------0----------------0---------0-----|
D|----0----0---0-----0-------0---0-----2------2----2-------0---------0-------|
A|--2--------2-----2---(2)-----2-----3----3-----3--------2---------0---------|
E|0----------------------------------------------------3---------2-----------|
  (You Can Seriously Play This The Whole Song)

  Guitar 2:
e|---------------------------------------------------------------------------|
B|---------------------------------------------------------------------------|
G|------------------4/7----7-----4----4h5---5---2------2h4-------4-----------|
D|-4h5---5-----4--------------------------------------------------------4----|
A|---------------------------------------------------------------------------|
E|---------------------------------------------------------------------------|

  Guitar 3(during chorus):
e|-10--10(p8)|---------------------------10x---------------------------------|
B|-10--10----|---------------------------10x---------------------------------|
G|-0---0-----|---------------------------x-----------------------------------|
D|-----------|---------------------------------------------------------------|
A|-----------|---2---2---2---2---2---2---------------------------------------|
E|-----------|-0---0---0---0---0---0---0-------------------------------------|
  (play till satisfied)             
Submit corrections


        Turn It Down  lessons Hard to play? Try these video lessons and learn fast Turn It Down  lessons
        
↑ Back to top | Tablatures and chords for acoustic guitar and electric guitar, ukulele, drums are parodies/interpretations of the original songs. You may use it for private study, scholarship, research or language learning purposes only