» » »

Kashmir - Vicious Passion Tabs

Artists:  A B C D E F G H I J K L M N O P Q R S T U V W X Y Z # 

Vicious Passion Tabs

(ver. 1) Click to play this song!
Kashmir
 Rating:
4/5 (4 votes)
                here is the intro for vicious passion!

THE INTRO(chords)
-2-----4-------2------2-----5-----2------4-------5-------7
-2-----4-------2------2-----5-----2------4-------5-------7
-3-----4-------3------4-----7-----3------4-------6-------8
-4-----6-------4------4-----7-----4------6-------7-------9
-4-----6-------4------2-----5-----4------6-------7-------9
-2-----4-------2------------------2------4-------5-------7

----------------------------------------------------------
------------------------------------------------------
------------------------4-----------------------------
---4---5--4----4--4--7---------4-----5--4-------------
-5---5----------------------5-----5---------7-7---6---
------------------------------------------------------


the last would com later(promise)




enjoy
            
Submit corrections

↑ Back to top | Tablatures and chords for acoustic guitar and electric guitar, ukulele, drums are parodies/interpretations of the original songs. You may use it for private study, scholarship, research or language learning purposes only