» » »

Petite Machine Tabs - Kashmir

Artists:  A B C D E F G H I J K L M N O P Q R S T U V W X Y Z # 

Petite Machine Tabs

(ver. 1) Click to play this song!
4/5 (4 votes)
    Petite Machine lessons Tabs too difficult? Try these video lessons and learn fast
                Kashmir – Petite machine

Standard tuning

e ----------------------------------------------------------
B -10~10~10~10~10~10~-8----11p13-11p10---------8-10-11p10-8--
G ----------------------10-------------10---10---------------
D ----------------------------------------------------------
A ----------------------------------------------------------
E ----------------------------------------------------------

e -----------------------
B ----10-----------------
G -10----10-----------9b-
D ----------10---9-10----
A -----------------------
E -----------------------

e -------------10p12b-10-----------------------
B -10-10~-8-10-----------10------8-10-11p10-8--
G ----------------------------10---------------
D ---------------------------------------------
A ---------------------------------------------
E ---------------------------------------------

e ---------------------
B -10-------8----------
G 10----10------7-9-10- Verse starts
D ---------------------
A ---------------------
E ---------------------

Note: this is my first tab
Submit corrections

↑ Back to top | Tablatures and chords for acoustic guitar and electric guitar, ukulele, drums are parodies/interpretations of the original songs. You may use it for private study, scholarship, research or language learning purposes only